Eric Clapton
Classic Guitar Solo Ver 2 (Guitar tab)

Artist: Eric Clapton (Mason Williams cover)
Song: Classical Gas (Classic Guitar Solo)
Submitted by: Rhyknow17

E|---------------|-----------------|-----------------|---------------|
B|-1-----------1-|-------0---------|-----0-----------|---------------|
G|-------2-------|-----0-----------|---0---------2-0-|-----2---------|
D|---------------|-----------------|-----------------|---2-----------|
A|-0-------------|-----------------|-----------------|-0-------------|
E|---------------|---3-----------2-|-0---------------|---------------|

E|---------------------|-----------------|-------------------|
B|-----------0h1---0h1-|-------0-------0-|-----------0-------|
G|-----2---------2-----|-2---0-------0---|---2-0-0h2-------2-|
D|---------------------|-----------------|---------------2---|
A|---0-----------------|-----------------|-------------0-----|
E|---------------------|---3-----2-0-----|-------------------|

E|--------------------|-0---------------|-------------|
B|-----0-----1-----3--|-------3-1---3---|---1--0------|
G|---0-----2-----0----|-----0-----------|-------------| Pause...
D|--------------------|-----------------|-2-----------|
A|-------0-----2------|-3-------0-------|-------------|
E|-3------------------|-----------------|-------------|

PART A:

||--------------------|-----------------|-----------------|
||--0h1p0-1-----1---0-|-----------------|-0---------0-----|
||*---------2---------|-----0-----0-----|---2-0-2-------2-|
||*---------------2---|---0-----0-----0-|-----------------|
||--0---------0-------|-----------------|-----------------|
||--------------------|-3-----2-----0---|-0-------0---0---|


1,2,3........... 4.............
|------------------||-----------------|-----------------|
|------------------||-------0-----0-1-|-----1-----3-----|
|-----2-----2-----*||-----2-----0-----|---2-----0-----0-|
|---2-----2-----2-*||---2-------------|-----------------|
|-0-----0-----0----||-0---------------|-0-----2-----2---|
|------------------||---------3-------|-----------------|

|--0--------------------|-----------------|-----------------|
|-------3-1--3----1p0---|-----------------|-------0-----0-1-|
|-----0---2---------0---|-2-----0-2-2---0-|-2---2-----0-----|
|---------------2-------|---------2-------|---2-------------|
|--3--------------------|-----------------|-0---------------|
|-----------------------|-1-------0-------|---------3-------|

|-----------------|--0-----1-----|-2-----3-----|-4---5p0--7----||
|-----1-----3-----|----1-----1---|---1-----0---|---0----0---0--||
|---2-----0-----0-|------0-----2-|-----2-----0-|---------------||
|-----------------|--------------|-0-----------|---------------||
|-0-----2-----2---|--3-----------|-------------|---------------||
|-----------------|--------1-----|-------3-----|-0-------------||

PART B:

||--8-7-------------|---------5-------|-8-7-------------|
||-----10-8--10---7-|--10-7-----5-----|----10-8--10---7-|
||--------9---9---7-|-----7-----5-----|-----------9---7-|
||------------------|-0-----0---------|-----------------|
||--0-------0---0---|-------------0---|-0-------0---0---|
||------------------|-----------------|-----------------|

|-------5----------|-8-7-------------|-----8----------3-|
|---8-----7------0-|----10-8--10---7-|----10-10-8-----3-|
|---9-----7----0---|-------9---9---7-|----------9-------|
|-0---0-----0h2----|-----------------|-0-0--------0-----|
|------------------|-0-------0---0---|------------------|
|------------------|-----------------|------------------|

|------------1----------|---0-----0-----0-----0---|
|------5-----1-----3----|---3-----3-----3-----3---|
|------5-----2-----3----|---2-----2-----2-----2---|
|------5-0---------3-0--|-------------------------|
|----5-----------1------|-0-----0-----0-----0-----|
|--3-------1---1--------|-------------------------|

|----------------0-|------------------||
|------------3-----|---3---------3p0--||
|--------2---------|-------2---2------||
|----3-------------|---------3--------||
|--0---------------|------------------||
|------------------|------------------||

PART C:

||-------------------|-----------------|-------------------|
||-0h1p0-1---------3-|-----1-----0-----|-0h1p0-1---------0-|
||---------2-----2---|-----------------|---------2-----2---|
||-------------2-----|---2-----2-----2-|-------------2-----|
||-0---------0-------|-0-----0-----0---|-0---------0-------|
||-------------------|-----------------|-------------------|

|-----------------|-------------------|-----------------|
|-----------------|-0h1p0-1---------0-|-----1-----3-----|
|-----2-----0-----|---------2-----2---|-----------------|
|---2-----2-----2-|-------------2-----|---2-----2-----2-|
|-0-----0-----0---|-0---------0-------|-0-----0-----0---|
|-----------------|-------------------|-----------------|

|-----------------|------------------||
|-5---5-3---3-1---|-1-0---0---0-1-0--||
|---5-----4-----2-|-----0---2--------||
|-----------------|------------------||
|-0-----0-----0---|---0-----0--------||
|-----------------|------------------||

PART D:

||-0---0-----------|---------1p0-----|-0---0-----------|
||---3---1-----1-0-|-----3-------3---|---3---1-----1-0-|
||-----------0-----|---0---0-------0-|-----------2-----|
||-----------------|-----------------|-----------------|
||-3-------3-------|-2---2---2-------|-0-------0-------|
||-----------------|-----------------|-----------------|

|---------1p0-----|-0---0-----------|---------1p0-----|
|-----3-------3---|---3---1-----1-0-|-----3-------3---|
|---0---0-------0-|-----------0-----|---0---0-------0-|
|-----------------|-----------------|-----------------|
|-----------------|-3-------3-------|-2---2---2-------|
|-3---3---3-------|-----------------|-----------------|

|-0---0-----------|-----------------|-----------------|
|---3---1-----1-0-|-----------------|-0---------0-----|
|-----------2-----|-----0-----0-----|---2-0-2---0---0-|
|-----------------|---0-----0-----0-|-----------------|
|-0-------0-------|-----------------|-----------------|
|-----------------|-3-----2-----0---|-0-------0---0---|

|-----------------|-0---1---2---3---|-4-----5p0---7-----||
|-----0---1---3---|---------------0-|----0-----0-----0--||
|-2-----0---0---0-|---0---2---2-----|-------------------||
|---2-------------|---------0-------|-------------------||
|-0-------0---2---|-3---------------|-------------------||
|-----3-----------|-----1-------3---|-0-----0-----0-----||

PART B2:

||--8-7-------------|---------5-------|-8-7-------------|
||-----10-8--10---7-|--10-7-----5-----|----10-8--10---7-|
||--------9---9---7-|-----7-----5-----|-----------9---7-|
||------------------|-0-----0---------|-----------------|
||--0-------0---0---|-------------0---|-0-------0---0---|
||------------------|-----------------|-----------------|

|-------5----------|-8-7-------------|-----8----------3-|
|---8-----7------0-|----10-8--10---7-|----10-10-8-----3-|
|---9-----7----0---|-------9---9---7-|----------9-------|
|-0---0-----0h2----|-----------------|-0---0------------|
|------------------|-0-------0---0---|------------0-----|
|------------------|-----------------|------------------|

|------------1----------|---0-----0-----0-----0---|-----0-----------||
|------5-----1-----3----|---3-----3-----3-----3---|------3----------||
|------5-----2-----3----|---2-----2-----2-----2---|-------2---------||
|------5-0---------3-0--|-------------------------|---3----3--------||
|----5------------------|-0-----0-----0-----0-----|-0---------------||
|--3-------1---1/3------|-------------------------|-----------------||

PART A2:

||-------------------|-----------------|-----------------|
||-0h1p0-1-----1---0-|-----------------|-0---------0-----|
||---------2---------|-----0-----0-----|---2-0-2-------2-|
||---------------2---|---0-----0-----0-|-----------------|
||-0---------0-------|-----------------|-----------------|
||-------------------|-3-----2-----0---|-0-----------0---|

|-----------------|-------------------|-----------------|
|-----------------|-0h1p0-1-----1---0-|-----------------|
|-----2-----2-----|---------2---------|-----0-----0-----|
|---2-----2-----2-|-------------------|---0-----0-----0-|
|-0-----0-----0---|-----------0-------|-----------------|
|-----------------|-------------------|-3-----2-----0---|

|-----------------|-----------------|-----------------|
|-0---------0-----|-------0-----0-1-|-----1-----3-----|
|---2-0-2-------2-|-----2-----0-----|---2-----0-----0-|
|-----------------|---2-------------|-----------------|
|-----------------|-0---------------|-0-----2-----2---|
|-0-------0---0---|---------3-------|-----------------|

|--0--------------------|-----------------|-----------------|
|-------3-1--3----1p0---|-----------------|-----0---1---3---|
|-----0---2-------------|-2-----0-2-2---0-|-2-----0---0---0-|
|---------------2--p0---|---------2-2-----|---2-------------|
|--3--------------------|-----------------|-0-------0---2---|
|-----------------------|-1-------0-------|-----3-----------|

|-0---1---2---3---|-4-----5p0---7--5--||
|---------------0-|----0-----0--------||
|---0---2---2-----|-------------------||
|---------0-------|-------------------||
|-3---------------|-------------------||
|-----1-------3---|-0-----0-----0-----||

CODA:

||------------3-----|-------1----------|---------------0-|
||------7-----3-----|-5-----1-----3----|-----------3-----|
||------7-----4-----|-5-----2-----3----|-------2---------|
||------7-0---------|-5-0---------3-0--|---3-------------|
||----5-----------3-|-----------1------|-0---------------|
||--5-------3---3---|-----1---1--------|-----------------|

|------------------|---------------0-|----------------|
|---3---------3----|-----------3-----|---3---------3--|
|-------2---2---0--|-------2---------|-------2---2----|
|---------3--------|---4-------------|---------4------|
|------------------|-0---------------|----------------|
|------------------|-----------------|----------------|

|--------------------||
|-------2p0-2--------||
|------2-------------||
|-----2--------------||
|-0------------------||
|--------------------||


this is the most accurate tab you're gonna find!!! p.s. i dont take credit for tabbing this out, just for putting all the right tabs where they need to be. I'm also curious to know if Clapton actually DID cover this song, or if it's just some other guitarist i heard on a "classical gas" file i got off of KaZaA...any feedback would be nice.

Copyrights
Auteur: ?
Componist: ?
Uitgever: ?
Meer details
Taal: Engels

Reacties

CommonCrawl [Bot]

Volg Muzikum