Eric Clapton
Classic Guitar Solo (Guitar tab)

Author/Artist: Eric Clapton
Title: Classic Guitar Solo
Transcribed by: Robert Karlsson
Email: bobbe@welho.com


---------------|-----------------|-----------------|---------------|----------
-1-----------1-|-------0---------|-----0-----------|---------------|----------
-------2-------|-----0-----------|---0---------2-0-|-----2---------|-----2----
---------------|-----------------|-----------------|---2-----------|----------
-0-------------|-----------------|-----------------|-0-------------|---0------
---------------|---3-----------2-|-0---------------|---------------|----------


-----------|-----------------|-------------------|-----------------|----------
-0h1---0h1-|-------0-------0-|-----------0-------|-----------------|-----3----
-----2-----|-2---0-------0---|---2-0-0h2-------2-|---------0-----2-|---0------
-----------|-----------------|---------------2---|-------0-----2---|----------
-----------|-----------------|-------------0-----|-----------0-----|-2--------
-----------|---3-----2-0-----|-------------------|-----3-----------|----------


-0-------|-----------------|-----------------|-------------------|------------
-------3-|-1---3-------1---|-0---------------|-0h1p0-------1---0-|------------
-----0---|-2---------------|-----------------|-------2---2---2---|-----0------
---------|---------2-------|-----------------|-------------------|---0-----0--
-3-------|-----------------|-----------------|-0-------0---------|------------
---------|-----------------|-----------------|-------------------|-3-----2----


-------|-----------------|-----------------|-------------------|--------------
-------|-0---------0-----|-----------------|-0h1p0h1-----1---0-|--------------
-0-----|---2-0-2-------2-|-----2-----2-----|-----------2-------|-----0-----0--
-----2-|---------2-------|---2-----2-----2-|---------------2-0-|---0-----0----
-------|-----------------|-0-----0-----0---|-0-------0---------|--------------
---0---|-0-----------0---|-----------------|-------------------|-3-----2------


-----|-----------------|-----------------|-------------------|----------------
-----|-0---------0-----|-----------------|-0h1p0h1-----1---0-|----------------
-----|---2-0-2-------2-|-----2-----2-----|-----------2---2---|-----0-----0----
---2-|-----------------|---2-----2-----2-|-------------------|---0-----0------
-----|-----------------|-0-----0-----0---|-0-------0---------|----------------
-0---|-0-------0---0---|-----------------|-------------------|-3-----2-----0--


---|-----------------|-----------------|-------------------|------------------
---|-0---------0-----|-----------------|-0h1p0h1-----1---0-|------------------
---|---2-0-2-------2-|-----2-----2-----|-----------2-------|-----0-----0------
-2-|---------2-------|---2-----2-----2-|---------------2-0-|---0-----0---2-2--
---|-----------------|-0-----0-----0---|-0-------0---------|------------------
---|-0-----------0---|-----------------|-------------------|-3-----2-----0----


-|-----------------|-----------------|-----------------|-0---------------|----
-|-0---------0-----|-------0-----0-1-|-----1-----3-----|-------3-1---3---|----
-|---2-0-2-------2-|-----2-----0-----|---2-----0-----0-|-----0-----------|----
-|-----------------|---2-------------|-----------------|---------2-------|-2--
-|-----------------|-0---------------|-0-----2-----2---|-3---------------|----
-|-0-------0---0---|---------3-------|-----------------|-----------------|----


-------------|-----------------|-------------------|---------0-----1-|-----2--
-1-0---------|-----------------|-0-----0-1-----1---|---3-------1-----|-1------
-------2-----|-0-2-2---0-2---2-|-----0-------2-----|-0-----0-----0---|---2----
---0---------|-------------2---|-------------------|-----------------|-----0--
-------------|-----------0-----|-----------0-----2-|-----2---3-------|--------
-------1-----|---0-0-----------|---3---------------|---------------1-|--------


-----3-----|-4---5---7---8-7-|--------------------|------------8-7----|-------
-3-----0---|---5---5---5-----|-10-8---10---7---10-|-7---10---------10-|-8-----
---2-----0-|-----------------|-------------7---7--|-7---7--9----------|-------
-----------|-----------------|-------------0---0--|-0-----------------|-------
-----------|-------------0---|----0---0-----------|----------0-0------|-0-----
-----3-----|-0---0---0-------|--------------------|-------------------|-------


------------|------------8-7----|--------------8----|-------3-----0---|---1---
-10-7---8---|-10-8-----------10-|-8---10---7-----10-|-8-----1-----1---|---3---
----7---7---|-7--7-----9--------|-------------------|---------------3-|-3-----
------0---0-|--------9----------|----------0---0-0--|-0---------------|-------
-0----------|------7-----0------|-0---0-------------|---0h3---------1-|-1-----
------------|-------------------|-------------------|---------0h3-----|-----1-


---1-----0-|-----0-----0-----|-0---------------|---0-------------|------------
---1-----3-|-----3-----3-----|-3-------------3-|-------3---------|-3---1------
-2---2-2-2-|-----2-----2-----|-2---------2-----|-----------2---2-|---2---0h2--
-----------|-----------------|-------3---------|-------------3---|------------
-----1-0---|---0-----0-----0-|-----0-----------|-----------------|-----0------
-----------|-----------------|-----------------|-----------------|------------


-------|-----------------|---------------------|-----------------|------------
-------|-3-----1-----0---|---0h1p0h1---------0-|-----------------|-0h1ph1-----
-2-----|-----------------|-----------2-----2---|-----2-----0-----|--------2---
-----2-|-----2-----2-----|-2-------------2-----|---2-----2-----2-|------------
-0-0---|---0-----0-----0-|---0---------0-------|-0-----0-----0---|-0----------
-------|-----------------|---------------------|-----------------|------------


-----------|---------------0-|---0-------------|---------------0-|---0--------
-------0---|---1-----3-------|-1---3---3-1---1-|-0---0---0-1-0---|-3---1------
-----2-----|-----------------|-------4-----2---|---0---2---------|---------0--
---2-------|-2-----2-----2---|-----------------|-----------------|------------
-0-------0-|-----0-----0---0-|-----0-----0-----|-0-----0-------3-|-------3----
-----------|-----------------|-----------------|-----------------|------------


-------|-------1p0-----0-|---0-------------|-------1p0-----0-|---0------------
-1-----|---3-------3-----|-3---1-----1-0---|---3-------3-----|-3---1-----1----
---0---|-0---0-------0---|---------2-------|-0---0-------0---|---------0---0--
-------|-----------------|-----------------|-----------------|----------------
-----2-|---2---2-----2-0-|-------0---------|---------------3-|-------3--------
-------|-----------------|---------------3-|---0---0---------|----------------


---|-------1p0-----0-|---0-------------|-----------------|-----------------|--
---|---3-------3-----|-3---1-----1-0---|---------------0-|---------0-------|--
---|-0---0-------0---|---------2-------|---0-----0-------|-2-0-2-------2-2p|--
---|-----------------|-----------------|-0-----0-----2---|-------2---------|--
-2-|---2---2-----2-0-|-------0---------|-----------------|---------------0-|--
---|-----------------|---------------3-|-----2-----0---0-|-----------0-----|--


---------------0-|---1---2---3---4-|---5---7-8-7------|-------------------|---
---0---1---3-----|---------------5-|---5---5-----10-8-|---10---7---10-7---|---
-0---0---2---0---|-0---2---2---0---|-4---4------------|--------7---7--7---|---
-----------------|-------0---------|------------------|--------0---0--0---|---
-------0---2---3-|-----------------|---------0------0-|---0---------------|---
---3-------------|---1-------3---0-|---0---0----------|-------------------|---


--------8-7--------|-------------------|-------8-7--------|----------8--------
-10---------10-8---|-10---7---8---10-8-|-----------10-8---|-10---7-----10-8---
-7--9--------------|------7---7---7--7-|-----9------------|-------------------
-------------------|--------0---0------|---9--------------|------0---0-0--0---
------0-0------0---|-0-----------------|-7-----0------0---|-0-----------------
-------------------|-------------------|------------------|-------------------


--|---3-----0-----1-|-----1-----0-----|-0-----0-------0----|------------------
--|---1-----1-----3-|-----1-----3-----|-3-----3------3-3---|------------------
--|-----------3-3---|---2---2-2-2-----|-2-----2-----2---2--|------------------
--|-----------------|-----------------|------------3-----3-|------------------
-0|h3---------1-1---|-------1-0-----0-|-----0-----0--------|------------------
--|-----0h3---------|-1---------------|--------------------|------------------


-|-----------------|-------------------|-----------------|-----------------|--
-|-----------------|-0h1p0h1-----1---0-|-----------------|-0---------0-----|--
-|-----------------|-----------2---2---|-----0-----0-----|---2-0-2-------2-|--
-|-----------------|-------------------|---0-----0-----2-|---------2-------|--
-|-----------------|-0-------0---------|-----------------|-----------------|--
-|-----------------|-------------------|-3-----2-----0---|-0-----------0---|--


-----------------|-------------------|-----------------|-----------------|----
-----------------|-0h1p0h1-----1---0-|-----------------|-0---------0-----|----
-----2-----2-----|-----------2-------|-----0-----0-----|---2-0-2-------2-|----
---2-----2-----2-|---------------2-0-|---0-----0-----2-|-----------------|----
-0-----0-----0---|-0-------0---------|-----------------|-----------------|-0--
-----------------|-------------------|-3-----2-----0---|-0-------0---0---|----


---------------|-----------------|-0---------------|---------------|----------
-----0-----0-1-|-----1-----3-----|-------3-1---3---|---1-0---------|----------
---2-----0-----|---2-----0-----0-|-----0-----------|---------2-----|-0-2-2----
-2-------------|-----------------|---------2-------|-2---0---------|----------
---------------|-0-----2-----2---|-3---------------|---------------|----------
-------3-------|-----------------|-----------------|---------1-----|---0-0----


---------|-----------0---1-|---2---3---4---5-|---7-5-----3-----|-0-----1------
-------0-|---1---3---------|-----------5---5-|---5-5-----1-----|-1-----3------
-2-2p0---|-0---2---0---0---|-2---2---0---4---|-4---------------|---3-3-----2--
---------|-----------------|---0-------------|-----------------|--------------
---0-----|---0---2---3-----|-----------------|-------0h3-------|---1-1--------
-------3-|---------------1-|-------3---0---0-|---0-0-------0h3-|---------1----


-1---|---------------0-|-----------------|---------------0-|------------------
-1---|-----------3-----|---3---------3---|-----------3-----|---3---------3----
---2-|-------2---------|-------2---2---0-|-------2---------|-------2---2---2--
-----|---3-------------|---------3-------|---4-------------|---------4--------
---1-|-0---------------|-----------------|-0---------------|------------------
-----|-----------------|-----------------|-----------------|------------------


-|------------------|---------------------------------------------------------
-|----------0h2-0-2-|---------------------------------------------------------
-|---------2--------|---------------------------------------------------------
-|--------2---------|---------------------------------------------------------
-|-0-----0----------|---------------------------------------------------------
-|------------------|---------------------------------------------------------

Copyrights
Auteur: ?
Componist: ?
Uitgever: ?

Reacties

CommonCrawl [Bot]

Volg Muzikum