Eric Clapton
Classical-gas (Guitar tab)

Song: Classical Gas
Artist: Eric Clapton

Ok this is one of the best songs in the world so sit back and enjoy playing it.

e |-------------------------------------------------------|
B |--1-------1------0-------------0-----------------------|
G |------2---------0-------------0--2-0--------2----------|
D |---------------0-------------2-------------2-----------|
A |--0---------------------------------------0------------|
E |--------------3--------2----0--------------------------|

e |--------------------------------------------------------|
B |----0h1--0h1-------0--------------0--------0------------|
G |---2---2----------0--------4-----0--2-0-0h2-----2-------|
D |-----------------0--------2-----2--------------2--------|
A |--0-------------------------------------------0---------|
E |----------------3--------2-----0------------------------|

e |----------------------0------------------------------|
B |------0-----1-----3---------3-1---3-------1--0-------|
G |----0-----2-----0---------0--------------------------|
D |----------------------------------------2------------|
A |--------0-----2-------3-------0----------------------|
E |--3--------------------------------------------------|

e |------------------------------------------------------------------|
B |--0h1h0---0---1---0---------------------------0-------------------|
G |--------2-----2---0-----0-----0-------2-0-2-------2-----2-----2---|
D |----------------------0-----0-----0-------------------2-----2-----|
A |--0---------0---0-----------------------------------0-----0-----0-|
E |--------------------3-----2-----0---0-------0---0-----------------|

e |----------------------------------0-----------------------------------|
B |--------0-----0-1------1-----3------1---3-1---3------1-0--------------|
G |------2-----0--------2-----0----------0-----2------0------2--0-2-2--0-|
D |----2-------------------------------------------2---------3-----------|
A |--0----------------0-----2-----2--3-------0--------------------0------|
E |----------3-----------------------------------------------------------|


e |-------------------------------0-----1-----2-----3------4---5---7--|
B |--------0-----0-1------1-----3---1-----1-----1-----3------0---0---0|
G |--2---2-----0--------2-----0-------0-----2-----2-----0-------------|
D |----2--------------------------------------0-----------------------|
A |--0----------------0-----2-----3-----0-----------2-----------------|
E |----------3---------------------------------------------0---0---0--|

e |--8-7-5-----5--------5-----5--------8-7-5-----5------------5------|
B |--5-----8-------7--------7---5------------8-------7----8-----8---7|
G |------------------------------------------------------------------|
D |-------------------0---0---0---0---------------------0---0---0---0|
A |--0-------0---0---------------------0-------0---0-----------------|
E |------------------------------------------------------------------|

e |--8-7-5-----5-------8---5-----5-3----3---1---1------0---0---0---0------|
B |--------8-------7---------8-----3----5---1---3------3---3---3---3------|
G |--------------------------------4----5---2---3------0---0---0---0------|
D |------------------0---0---0---0-5----5---3---3------2---2---2---2------|
A |--0-------0---0-----------------5----3---3---1---0----0---0---0---0----|
E |--------------------------------3--------1-----------------------------|

e |--------0-----|
B |-----3--------|
G |---2----------|
D |-3------------|
A |--------------|
E |--------------|

Copyrights
Auteur: ?
Componist: ?
Uitgever: ?
Meer details
Taal: Engels

Reacties

CommonCrawl [Bot]

Volg Muzikum