Eric Clapton
Change The World (Bass tab)

5 String, standard tuning
g, d, a, e, b

(AH..means Artifical Harmonics)

Intro
-----
(rest for two bars)
AH*********************** ******
G|--21-(21)------21---21\-------------------------------21(33)---21(33)-------21(33)-----
D|---------------------------------------------------------------------------------------
A|--------------------------------------------21^(33)------------------------------------
E|---------------------------------------------------------------------------------------
B|---------------------------------------------------------------------------------------

Vocals(if I can reach the stars....)

G|21---21--(21)-(21)\----21-19-------------------------------|----------------------------
D|--------------------------------21-19h21-21----------------|----------------------------
A|-----------------------------------------------------------|----------------------------
E|---------------------------------------------------19\-----|--0-------------------------
B|-----------------------------------------------------------|----------------------------


G|---------------------------------------------------------------------------------------
D|----------14-14h15p14p12h14------------------------------2---------------12h14---------
A|-----------------------------------------------------2h4-------------------------------
E|----(0)--------------------------0----------0---------------0---0-----0----------------
B|---------------------------------------------------------------------------------------


G|---------------------------------------------------------------------------------------
D|--14------14--------14----12h14--------------------------------------7-----7-----------
A|-----------------------------------x--0-------------0------4--7------------------------
E|--0-------0----------------------------------------------------------------------------
B|---------------------------------------------------------------------------------------

AH*************
G|---------------------------------------------------------------------------------------
D|--7------------------------------------12h14----14---------------------6(30)-----------
A|-------0---0-----0---2-------------------------------------------------------6(30)-----
E|--------------x----------0--------0------------------0-------4----4------------------4-
B|---------------------------------------------------------------------------------------

Chorus (Change the world...)

G|-----------------------------------6----------------------------------------------------
D|-------------------------6---6---------------4--5--6------------------------------------
A|--------------4----4---------------------6-----------------4-------------------4--------
E|--2-----4-----------------------------------------------------------------4-------------
B|-----------------------------------------------------------------2--2-------------------

G|---------------------------------------------------------------------------------------
D|-----------4---------------------------------------------------------------------------
A|-----6-------------------4----3---2----------------------------------------------------
E|-----------------4---------------------2--4--5--------4--------4-----3-------2---------
B|---------------------------------------------------------------------------------------

AH***** ******
G|--------------------------------21(33)---21(33)----23^---21---21-----------------------
D|-------------------2-------------------------------------------------------------------
A|-----------2--2h4----------------------------------------------------------------------
E|----2------------------0--------------------------------------0------------------------
B|---------------------------------------------------------------------------------------

2nd Verse (If I could be king...)

G|---------------------------------------------------------------------------------------
D|-------------------------------------------12h14---------------------------------------
A|---------------------------------------------------------------------------------------
E|-0---0--0---0----0----0-0--0---0----0-----------0---0----0--------0--0------0----------
B|---------------------------------------------------------------------------------------

G|---------------------------------------------------------------------------------------
D|---------------------------2------------------------------------------12h14----12h14---
A|-----------------------2h4-------------------------------------------------------------
E|---0---x--0------x--x------------0---0-----0---x-0----0-----x--0-----------------------
B|---------------------------------------------------------------------------------------

G|------------------------------------------------------------------------------2--------
D|--------------------------------------------------------------------------2------------
A|-------------------------------------------------------0----0----0---0-------------0---
E|---0-----0--------0---x--0--0-----0-------0-0---2---4----------------------------------
B|---------------------------------------------------------------------------------------

G|--------------------------0h2----------------------2-----------------------------------
D|-----------------------------------------------2--------------------0---0-----0---2----
A|--0---0--------0---0--0--------0----0----0--0---------0--0----0---x--------0-----------
E|------------0--------------------------------------------------------------------------
B|---------------------------------------------------------------------------------------

G|---------------------------------------------------------------------------------------
D|-------------------------------12h14-12h14--------------------------------------------4
A|-------------------------------------------------------------------------------------6-
E|0---0----0--0--x--0---0---0--------------------0---0---x-0----0-0-0---4--4--7-7-4-7----
B|---------------------------------------------------------------------------------------

Chorus (Change the world.....)

G|----------------------------------------------------------------------------6/--4------
D|---------------6-----------------------------2--------------4h6-----6------------6-----
A|---4---------------4---------------------4--------4-6---6-------------6--4--------74-44
E|2------2--4---------------------------4-----------------------4------------------------
B|-----------------------2--x--5--x--x---------------------------------------------------

G|---------------------------------------------------------------------------------------
D|-------------6----------------2/4\2-----------------------------------2----------------
A|-6--5-6---------4---4p3---2-----------0---0--------------------2h4---------------------
E|---------4-----------------------------------4----4---3---2----------------------------
B|---------------------------------------------------------------------------------------

G|---------------------------------------------------------------------------------------
D|---------------0h2------------------------------------------------------2--------------
A|-----------------------4p2---0---0-------------------------------2-2h4-----------------
E|-0-----0--0---------------------------4---x--0--4--3--2----2---------------------------
B|---------------------------------------------------------------------------------------

Guitar Solo

G|---------------------------------------------------------------------------------------
D|---------------------------------5-----5-----------------5-----------------------2--2--
A|------------------------------------5-------5--------------------------------2h4-------
E|--0----2-0-2--3----3-----3--3--------------------x--3---------2---0---0----------------
B|---------------------------------------------------------------------------------------

G|---------------------------------------------------------------------------------------
D|--------------------5-------------5------------5--------------------6-6-6--------------
A|------------------------5--5---------5-------------------------------------6-----------
E|--0---2----3--3--------------------------3-----------2----4-4-4-4-------------4-x-4\---
B|---------------------------------------------------------------------------------------

Chorus

G|---------------------------6----4------------------------------------------------------
D|-------------------------6----------6-------------------4--6---------------------------
A|-----------------4---4------------------7--6--4--6---6--------------6--5--4------------
E|2---2--3--4--4---------------------------------------------------4------------4-0--4x--
B|-------------------------------------------------------------------------------------22

G|----------------------------------------------------------------------------------------
D|------------4h6--------------4-3-2------------------------6---------------4-------------
A|-----6------------4---3---2--------2----0---------0---------------------4---------------
E|--------4----------------------------0---------x-----4--------4--3---2---------2---4----
B|-4--------------------------------------------------------------------------------------

G|--------------------------------------------------------------------------2-------------
D|-----2/4\2---------6----------------------------4---------------------2-----------------
A|-0--------------------6----------------------4------4----------0---0--------------------
E|--------------4----------7--4----3---0---2---------------2--4------------------4-----4--
B|----------------------------------------------------------------------------------------

G|-------------4--4-/-16-----------------------------------------------------------------
D|---------------------------------------------------------------------------------------
A|---------------------------------------------------------------------------------------
E|4---3----3------3-/-15-----------------------------------------------------------------
B|-------------------------------------h12/24--------------------------------------------

Outro

G|--------------------------------(5)----------------------------------------------------
D|----------------------------------------------------5----------------------------------
A|-------------------------------------------5---7----------7\5--------------------------
E|-0-----2---0--0--2---3------3-------------------------------------3----2-----2\----0---
B|---------------------------------------------------------------------------------------


You will have to play around to get the timing right, but this should be as good as it gets....

Copyrights
Auteur: ?
Componist: ?
Uitgever: ?
Meer details
Taal: Engels

Reacties

CommonCrawl [Bot]

Volg Muzikum