Eric Clapton
Broken Hearted (Guitar tab)

On the video, Clapton uses a particular kind of strumming to give a
percussive effect.
He flicks his wrist striking the strings with the side of his finsgernails.

B Dbm9 E6 Gbm9
--------------2-----------------4-------------4---------4--
--------------4-----------------4-------------5---------5--
--------------4-----------------4-------------4---------6--
--------------4-----------------2-------------6---------4--
---0----2-----------0-------------------------4---------0--
--------------------------4------------4-------------------
When the wind blows down this hard

B Dbm9 A Ama9?
--------------2-----------------4-------------0---0--------
--------------4-----------------4-------------2---0--------
--------------4-----------------4-------------2---1--------
--------------4-----------------2-------------2---2--------
---0----2-----------0-------------------------0---0--------
--------------------------4------------4-------------------
Many a bond is broken.

(REPEAT FIRST PATTERN)
See the water lie on the ground
From where the heavens opened.

E A Gbm B
---0-------------------0---------2---------------------2--------
---0-------------------2---------2---------------------4--------
---1-------------------2---------2---------------------4--------
---2-------------------2---------4---------------------4--------
---2----------------0--0---------4------------------2--2--------
---0-------------------------0---2------------------------------
Lord, how will you get through this night

Abm Dbm Gbm B
----------4--------------4-------2---2---------------------
----------4--------------5-------2---4---------------------
----------4--------------6-------2---4---------------------
----------6--------------6-------4---4---------------------
---0------6--------------4-------4---2---------------------
-------4--4------------------0---2-------------------------
With your dreams de par ted?


(REPEAT FIRST PATTERN)
And who alone will comfort you?
Only the brokenhearted.

So you've gone beyond your means
Where every wound is opened.
Your best laid plans are out of reach
And all your fears unspoken.

Lord, how will you get through this night
With your dreams departed?
And who alone will comfort you?
Only the brokenhearted.

Gb Abm
------2------2------------4-----4----------
------2------2------------4-----4----------
------3------3------------4-----4----------
------4------4------------6-----6----------
------4------4------------6-----6----------
---2--2---2--2---------4--4--4--4----------
Sweet revenge is spoken then,

A Dbm
----------0-----0--------------4-----4--
----------2-----2--------------5-----5--
----------2-----2--------------6-----6--
----------2-----2--------------6-----6--
-------0--0--0--0-----------4--4--4--4--
----------------------------------------
in the twilight it is gone.

Gb B Abm
------2-----2------------2----------4--
------2-----2------------4----------4--
------3-----3------------4----------4--
------4-----4------------4----------6--
------4-----4---------2--2-------0--6--
---2--2--2--2-----------------------4--
To live in lies with no escape,

Dbm A Ama9?
----------------4------4--------0---0-
----------------5------5--------2---0-
----------------6------6--------2---1-
----------------6------6--------2---2-
-------------4--4---4--4--------0---0-
--------------------------------------
Lord I would rather be alone.


I press my fingers to the wood
To tell you of my dreaming.
To sing you songs from olden time
to keep the lovelight gleaming.

'Cause there's a place where we can go
Where we will not be parted.
And who alone will enter there?
Only the brokenhearted.

Only the broken, brokenhearted.
Only the broken, brokenhearted.
Only the broken, brokenhearted.
Only the broken, brokenhearted.
Only the broken, brokenhearted.

***** `&' *********************************************
** # **
** # Any corrections, questions, comments, **
** _#_ etc. welcome! **
** ( # ) **
** / O \ Kyle Barton (guitarkyle@yahoo.com) **
** ( === ) http://www.kylebarton.com **
**** `---' ********************************************

Copyrights
Auteur: ?
Componist: ?
Uitgever: ?
Meer details
Taal: Engels

Reacties

CommonCrawl [Bot]

Volg Muzikum