Eric Clapton
Before You Accuse Me Ver 2 (Guitar tab)

This song is pretty easy, once you play it you'll figure out the rhythem.

|-------------------------|---------------------------|----------------------------|
|-------------------------|---------------------------|----------------------------|
|-------------------------|---------------------------|----------------------------|
|-------------------------|---------------------------|--2--2--4--2--2--2--4--2----|
|--2--2--4--2--2--2--4--2-|--2--2--4--2--2--2--4--2---|--0--0--0--0--0--0--0--0----|
|--0--0--0--0--0--0--0--0-|--0--0--0--0--0--0--0---0--|----------------------------|

|-------------------------|----------------------------|----------------------------|
|-------------------------|----------------------------|----------------------------|
|-------------------------|----------------------------|----------------------------|
|-------------------------|--2--2--4--2--2--2--4--2----|--2--2--4--2--2--2--4--2----|
|--2--2--4--2--2--2--4--2-|--0--0--0--0--0--0--0--0----|--0--0--0--0--0--0--0--0----|
|--0--0--0--0--0--0--0--0-|----------------------------|----------------------------|

p p
|---------------|------------------|----------------------------| End with With E
|---------------|------------------|----------------------------|
|---------------|--2--2------------|----------------------------|
|---------------|--1--1------------|--------------2--2--4--2----|
|--2--2--4--2---|--2--2------------|----------------------------|
|--0--0--0--0---|------------------|--0--0--3--4----------------|

Have fun!

Copyrights
Auteur: ?
Componist: ?
Uitgever: ?
Meer details
Taal: Engels

Reacties

CommonCrawl [Bot]

Volg Muzikum