Eric Clapton
Bad Love Ver 3 (Guitar tab)

Menmber Name: leewest
Real Name: Lee West (oh the originality!!)
Email: ethan_hunt202@hotmail.com

Bad Love � Eric Clapton

The measure bars aren�t for timing.
I�ve broken the intro into sections to make
it easier to learn.
Let me know if you have anything to add to this

Enjoy


Intro:


------------------|------------|-------------------------
------------------|------------|-------------------------
--------------5---|------------|--------------5----------
------3-5-/-7---5-|------3-5-3-|------3-5-/-7---7-5-5/7-5
3-/-5-------------|3-h-5-------|3-/-5-----------8-7-5/7-5
------------------|------------|-------------------------


------------------|------------|------------------------
------------------|------------|------------------------
--------------5---|------------|--------------5-7-------
------3-5-/-7---5-|------3-5-3-|------3-5-/-7-----7-----
3-/-5-------------|3-h-5-------|3-/-5---------------7-5-
------------------|------------|------------------------

Bm E7 A
Oh What a feeling I get when I'm with you

Bm E7 A
You take my heart into everything you do

Bb C Am
And it makes me sad for the lonely people

Bb C Dm
I walked that road for so long

Bb C Am
Now I know that
I'm one of the lucky people

Bb C Dm
Your love is making me strong

CHORUS

Bb C Am
I've had enough Bad love

Bb C G
I need something I can be proud of

Bb C Am Bb C G
I've had enough Bad love
No more bad love

Bm E7 A
And now I see that my life has been so blue

Bm E7 A
With all the heartaches
I had till I met you

Bb C Am
But I'm glad to say now
That's all behind me

Bb C G
With you here by my side

Bb C Am
And there's no more memories to remind me

Bb C G
Your love will keep me alive




Breakdown

|-----------------2-|
|-----------------3-|
|-----------------2-|
|-------------------|
|-0-2-3-2-0-----0---|
|-----------3-2-----| X 3

|--------------2|
|--------------3|
|--------------2|
|---------------|
|-0-2-3-2-0---0-|
|-----------3---| X 1

Solo: ?????????????

To quick and complicated for me

Copyrights
Auteur: ?
Componist: ?
Uitgever: ?
Meer details
Taal: Engels

Reacties

CommonCrawl [Bot]

Volg Muzikum