Eric Clapton
Bad Love (Bass tab)

Artist: Eric Clapton
Song: Bad Love

Intro ____ ____
|2x |1st |2nd |
G|----------------|--------------|--------------||---------------|-------------
D|*------7--10----|--------------|-------------*||------7--10----|-------------
A|*----8-------10-|------8-10-8--|-8-7--8-7----*||----8-------10-|------8-10-8-
E|--10------------|-8-10---------|----------10--||-10------------|-8-10--------

-|------------------------|
-|------7-10-12-----------|
-|----8---------12------.-|
-|-10---------------12-10-|

Verses
|2x |2x
G|---------------------------------------------------|-------------------------
D|*-------------------------------------------------*|*------------------------
A|*-------------7--7----7---------------------------*|*-------3--3-3-3---------
E|--7--7--0-5-7-------7---7-5--5--0-3-0-5--5--0-3-5--|--6-6-6----------5-5-5-6-
[Oh what...] ____ ____ [And it...]
|1st |2nd
----------------------|--------------|--------------------------|
----------------------|--------------|-------------------------*|
-------------3--3-3-3-|-5--5-5---5---|-10-10-10-10-10----10----*|
-6-6-6-3-3-3----------|--------5---5-|----------------10----10--|

Chorus
| |Fill #1|Fill #2 |
G|---------------| |------------------------|-------|--------|
D|*--------------| or |------------------------|-------|-------*|
A|*-5--3-3-------| |-5--3-3--10-10-10-10-10-|-------|-0-3-5-*|
E|----------3--3-| |------------------------|-0-3-5-|--------|

Bridge [After guitar solo]
_____________________ ____
|4x |all times except 2nd |2nd |
G|--r--|------------------------|---------------------|
D|*-e-*|*----------------------*|---------------------|
A|*-s-*|*-0-2-3-2-----------5--*|-0-2-3-2-----------5-|
E|--t--|----------5-2---3-5-----|---------5-2---------|

...another one tabbed by ridopoco...

Copyrights
Auteur: ?
Componist: ?
Uitgever: ?
Meer details
Taal: Engels

Reacties

CommonCrawl [Bot]

Volg Muzikum