Eric Clapton

Eric Clapton
"she's Waiting" (Guitar tab)

Transcribed by danewheat@hotmail.com
Eric Clapton "She's waiting"
*this is the main intro played through most of the song


e --------------------------------------------------------------
b --------------------------------------------------------------
g ---------5--7777--55------------------------------------------
d -55--55--5--7777--55------------------------------------------
a -55--55--3--5555--33------------------------------------------
E -33--33-------------------------------------------------------

*note- the part played as -7777-- is played with up and down strums quickly.
-7777--
-5555--
This part is the chorus
|---3--3----3--3----0----1--1----0--0----------|
|---3--3----3--3----1----3--3----1--1----------|
|---0--0----0--0----0----2--2----0--0----------|
|---0--0----0--0----2----0--0----2--2----------|
|---2--2----2--2----3------------3--3----------|
|---3--3----3--3-------------------------------|

then playintro again the this
|---0--0----0--0----2----0--0----2--2----------|
|---2--2----2--2----3----0--0----3--3----------|
|---2--2----2--2----2----0--0----2--2----------|
|---2--2----2--2----0----2--2----0--0----------|
|---0--0----0--0---------2--2------------------|
|------------------------0--0------------------|

Thats the whole song! its very easy!
Comments?

OptimusPrime

Toegevoegd door OptimusPrime op do 14 aug, 2003 4:45 pm

Auteur: ?
Componist: ?
Uitgever: ?
Taal: Engels

Reacties

CommonCrawl [Bot]

Volg Muzikum