Eric Clapton

Eric Clapton
Sunshine Of Your Love Ver 6 (Guitar tab)

This is really simple!!
--------------------------------
--------------------------------
--------------------------------
--------------------------------
-7-7-5-7------------------------
----------7-6-5-0-3-0----------- x2

--------------------------------
--------------------------------
--------------------------------
-7-7-5-7------------------------
----------7-6-5-0-3-0-----------
-------------------------------- x2

(repeat first riff again)


change around the amount of each riff to suit you,

have fun!

jonny

Toegevoegd door jonny op wo 02 jul, 2003 11:02 pm

Auteur: ?
Componist: ?
Uitgever: ?
Taal: Engels

Reacties

CommonCrawl [Bot]

Volg Muzikum