Eric Clapton
Layla Ver 2 (Bass tab)

Hi! This is a Bass Tab for Eric Clapton�s �LAYLA� (Great Song, you know...)
It�s been posted in a very easy way, but that version can�t imitate
the essential bass play of the original version.
So I tried to hear the bass line (rather complicated),
and this here sounds quite good. (Hear the Song for timing)

Chorus (rather easy):

G ---------------------------------------------------------------------------------------
D ---------------------------------------------------------------------------------------
A --5---5 1---1 3---3 5---5---5 1---1 3---3 5---5---5 1---1 3---3 5---5---5 1---1 3---3 4
E ---------------------------------------------------------------------------------------
�..la, you got me... ...mind�

Verse (not that easy)

G ------------------------6----------------------
D ----------4 6 6 6 6 6 9------------------------
A 4 4 4 4 7-----------------4 4 3 5 7 7---7--7-
E ----------------------------------------7--7---
�What will you...

G ----------------------1-2-2-4-6-----------------------
D --------------1-2-2-4----------4--4�2-----------------
A ----0-1�2-2-4-------------------------4-2-�2---------0
E -2-------------------------------------------4-2-0----
...you�ve been... ...Lay-�

Posted by tobimalms@web.de

Copyrights
Auteur: ?
Componist: ?
Uitgever: ?
Meer details
Taal: Engels

Reacties

CommonCrawl [Bot]

Volg Muzikum