Eric Clapton
Bad Love Ver 2 (Guitar tab)

BAD LOVE-ERIC CLAPTON
Note-this version of "bad love" Was taken directly from the video of Eric Clapton -24 nights.
So I know it's right!


iNTRO
E----------------------------------------------------------------------
B----------------------------------------------------------------------
G-------5---------------------5----------------------------------------
D-3/5-7---5--5-5-3-5-0--3/5-7---5--3/2---------------------------------
A--------------------------------------5/7-7/5-------------------------
E----------------------------------------------------------------------

cHORUS
E---------------------------------------------------------------------
B----------13-----------------------------13---------------------------
G-10/12-14----12--12-12-10-12-7--10/12-14----12--12-10-7---------------
D----------------------------------------------------------------------
A----------------------------------------------------------------------
E----------------------------------------------------------------------

^Repeat x2

Watch the video, you'll figure it out.


My first TAB! whatdja think?
I got a ton of clapton tabs that are unprinted, so if you want any, contact me
at Duffman_1031@hotmail.com
ROCK ON

Copyrights
Auteur: ?
Componist: ?
Uitgever: ?
Meer details
Taal: Engels

Reacties

1 bericht

CommonCrawl [Bot]

Anonymous do 29 mei, 2003 7:30 am

i like this tab and i believe that it is right i play alot of clapton and it sounds good to me

1 bericht • Pagina 1 van 1

Volg Muzikum