Eric Clapton
Layla Ver 2 (Guitar tab)

ARTIST: ERIC CLAPTON
SONG: LAYLA
TABBED BY: JOHN LEADMAN


I HAVE NOT BEEN ABLE TO PLAY CLAPTON UNTIL RECENTLY BUT I AM TELLING YOU I AMAZE MYSELF
I HAVE ONLY BEEN PLAYING SINCE JUNE THE TAB BELOW IS THE MOST ACCURATE I HAVE SEEN I LEARNED THIS IN ONE DAY AND CAME UP WITH IT IN ONE DAY I HOPE IT DOESN'T SOUND LIKE I AM BRAGGING WELL I AM KINDA WELL HERE IS THE TAB ENJOY.


PLAY THIS 2 TIMES

E/------------12-15-12------12-12-12------------------------------]
B/-----12-15------------15---------------13-13-13-15-15-15-17-----]
G/----------------------------------------------------------------]
D/----------------------------------------------------------------]
A/----------------------------------------------------------------]
E/----------------------------------------------------------------]


E/------------12-15-12------12-12-17-15----------------------12-15-12-- >
B/-----12-15------------15---------------19-15-17-----12-15------------ >
G/--------------------------------------------------------------------- >
D/--------------------------------------------------------------------- >
A/--------------------------------------------------------------------- >
E/--------------------------------------------------------------------- >

CONTINUED
> E/---------12-12-19-17--------------------------------------------]
> B/-----15---------------19-15-17----------------------------------]
> G/----------------------------------------------------------------]
> D/----------------------------------------------------------------]
> A/----------------------------------------------------------------]
> E/----------------------------------------------------------------]




THIS IS AS FAR AS I GOT TO IN THE SONG I AM WORKING ON THE PART BETWEEN THE WORDS
AND THE GOODFELLAS PART WHERE THE PIANO STARTS PLAYING AND I THINK I GOT MY WORK CUT OUT FOR ME MY NAME IS JOHN LEADMAN

Copyrights
Auteur: ?
Componist: ?
Uitgever: ?
Meer details
Taal: Engels

Reacties

1 bericht

CommonCrawl [Bot]

Anonymous vr 04 apr, 2003 7:02 am

sorry john but your tab is nowhere near accurate, though no harm in trying, having tabbed this for the first time as you say, well it was to be expected.

1 bericht • Pagina 1 van 1

Volg Muzikum