Eric Clapton
Layla Ver 6 (Guitar tab)

Layla, by Eric clapton (Original Version)


"This is the real versioin of Layla that i got from the official sheet music."

On this tab when you get up to the (Main riff) i've done it in sections = (1)-(4)
to try and make it easier so dont get confused about it.

h=hammer
p=pull
b=bend (this is a full bend)
sb=semitone bend (half a bend)
s=slide


(Intro) D5 C5 B#5 Bb/A C5 C#/G D5
e --------------------------------------------------------|
b --------------------------------------------------------|
g --------------------------------------------------------|
d ------0h3p0-----0----7s5---3----3-------5----5-------7--|
a -0h3---------3-------5s3---1----0-------3----0-------5--|
E ------------------------------------3------------3------|


(Main riff) (1) (2)
e ---------10h13p10-----10--|--13b13--12------10---| play (1) again
b --10h13------------13-----|-------------13-------| and then (3)
g --------------------------|----------------------| so it's
d --------------------------|----------------------| (1)-(2)-(1)-(3) repeat 3 times then
a --------------------------|----------------------| (1)-(2)-(1)-(4) this. (left)
E --------------------------|----------------------|


(3) (4)
e |--15b15---12-------10-------- |15b15---12------------|
b it changes |--------------13------------- |------------13sb------|
g eather to |----------------------------- |----------------------|
d (3) or(4) |----------------------------- |----------------------|
a here |----------------------------- |----------------------|
E |----------------------------- |----------------------|


reminder= (1)-(2)-(1)-(3)
(1)-(2)-(1)-(4)

now we go in to the the verse section after you finish (4)


--open.-- open- open-
Chord> C# G# C# C D E F#m B E A F#m B E A

strum down> 4 4 2 1 1 4 2 2 2 2 2 2 1 1

Copyrights
Auteur: ?
Componist: ?
Uitgever: ?
Meer details
Taal: Engels

Reacties

CommonCrawl [Bot]

Volg Muzikum