Eric Clapton

Eric Clapton
Sunshine Of Your Love Ver 5 (Guitar tab)

Author/Artist: Eric Clapton
Title: Sunshine Of Your Love
Album: The Cream Of Clapton
Transcribed by: Alex Shapcott
Email: minimee@eudoramail.com

I found one version but when i played to the song it didn't work.

--------------------|---------------------------------------------------------
--------------------|---------------------------------------------------------
--------------------|-x8------------------------------------------------------
-2-2-0-2------------|---------------------------------------------------------
---------2-1-0------|---------------------------------------------------------
---------------0-3b0|---------------------------------------------------------


--------------------|---------------------------------------------------------
--------------------|---------------------------------------------------------
-2-2-0-2------------|-x2------------------------------------------------------
---------2-1-0------|---------------------------------------------------------
---------------0-3b0|---------------------------------------------------------
--------------------|---------------------------------------------------------


--------------------|---------------------------------------------------------
--------------------|---------------------------------------------------------
--------------------|-x2------------------------------------------------------
-2-2-0-2------------|---------------------------------------------------------
---------2-1-0------|---------------------------------------------------------
---------------0-3b0|---------------------------------------------------------


---------------------------|--------------------------------------------------
---------------------------|--------------------------------------------------
---------------------------|--------------x1----------------------------------
-------0-0-2-2-2-----------|--------------------------------------------------
-2-2-2-----------0-0-2-2-2-|--------------------------------------------------
---------------------------|--------------------------------------------------


------------------------------------------|-----------------------------------
------------------------------------------|-----------------------------------
------------------------------------------|-x1--------------------------------
------------------------------------------|-----------------------------------
-0-0-2-2-2-0-0-2-2-2-2-2-2-2-2-2----------|-----------------------------------
------------------------------------------|-----------------------------------

OptimusPrime

Toegevoegd door OptimusPrime op zo 01 dec, 2002 9:41 am

Auteur: ?
Componist: ?
Uitgever: ?
Taal: Engels

Reacties

CommonCrawl [Bot]

Volg Muzikum