Eric Clapton
Layla Ver 4 (Guitar tab)

Layla / Eric Clapton

Tabbed by: Jordan Katz

This version of Layla was shown to me by Danny Sanderson. I modified
it a little but it's mostly his interpretation of the song.

1st Guitar:

E|--------------------
A|--7-----------------
D|----5-7---7-5-7-----
G|--------5-----------
B|--------------------
E|--------------------

2nd Guitar:

E|------------------------------
A|--7/5--1-0-1--3-0-3--5--------
D|--9/7--3-x-3--5-x-5--7--------
G|--9/7--3-x-3--5-x-5--7--------
B|------------------------------
E|------------------------------

Repeat above x 2

1st Guitar:

E|---------------------------------------------
A|--12-----------------------------------------
D|-----10-12----12-10-12--------------10--12---
G|-----------10------------12--10--9-----------
B|---------------------------------------------
E|---------------------------------------------

E|---------------------------------------------
A|--12-----------------------------------------
D|-----10-12----12-10-12--------------10--12---
G|-----------10----------------12--9-----------
B|-------------------------10------------------
E|---------------------------------------------

Copyrights
Auteur: ?
Componist: ?
Uitgever: ?
Meer details
Taal: Engels

Reacties

CommonCrawl [Bot]

Volg Muzikum