Eric Clapton

Eric Clapton
Sunshine Of Your Love Ver 3 (Guitar tab)

Artist:Clapton,Eric
Song:Sunshine
Album:Cream of Clapton (and other albums)
Tabbed by MJ Watson

e:------------------------------------------------------------|
B:------------------------------------------------------------|
G:----9-9-7-9--------------9-9-7-9-------9-9-7-9--------------|
D:------------7-6-5----------------7-6b----------7-6-5--------|
A:------------------5-8b-5-----------------------------5-8b-5-|
E:------------------------------------------------------------|


e:---------------------|
B:---------------------|
G:----9-9-7-9-9-9b-----|
D:---------------------|
A:---------------------|
E:---------------------|

then comes solo that I hav'nt figured out yet but this is most

OptimusPrime

Toegevoegd door OptimusPrime op zo 01 dec, 2002 9:41 am

Auteur: ?
Componist: ?
Uitgever: ?
Taal: Engels

Reacties

CommonCrawl [Bot]

Volg Muzikum