Eric Clapton

Eric Clapton
Sunshine Of Your Love Ver 4 (Guitar tab)

I dont guarentee that this is the exact version, but this was how I
learned Sunshine of Your Love(accoustic).

Here are the main riffs. Then after the ending you repeat the riffs
3 times

1st riff 4x
2nd riff 2x
1st riff 2x
3rd riff (ending) 1x

1st Riff

E------------------------------|
B------------------------------|
G------------------------------|
D-2-2-0-2----------------------|
A---------2-1-0----------------|
E---------------0-3(bend)-0----|

2nd riff

E------------------------------|
B------------------------------|
G-2-2-0-2----------------------|
D---------2-1-0----------------|
A---------------0-3(bend)-0----|
E------------------------------|

3rd riff

E----------------------------------------|
B----------------------------------------|
G----------------------------------------|
D-------2-2-2----------------------------|
A-2-2-2-------0-0-0----2-2-2-2-2-2-2-2-2-|
E----------------------------------------|


*NOTE these are ALL notes NO CORDS!
*NOTE in the 3rd riff after the 2-2-2 on the A string you rest twice
till you play the 2-2-2 on the D string.



REMINDER: I CANT GUARENTEE THAT THIS IS THE EXACT VERSION BUT THIS IS HOW I

OptimusPrime

Toegevoegd door OptimusPrime op zo 01 dec, 2002 9:41 am

Auteur: ?
Componist: ?
Uitgever: ?
Taal: Engels

Reacties

CommonCrawl [Bot]

Volg Muzikum