Eric Clapton
Knocking On Heavens Door (Guitar tab)

knockin on heavens door

intro(freely)
G Am7
-6s7--5--3----------0-
---------3----------2-
-6s7--5--4--2h4-2-0-0-
--------------------2-
--------------------0-
----------------------

strum
G D
# #$#$#$ # #$#$#$


riff 1
Am
-------------
-------------
-2--0-2--0-2-
-------------
-------------
-------------

verses
G D Am(riff 1)
(1)ma take this badge of me
(2)ma take these guns away from me

G D Am
i cant use it anymore
i cant shoot them anymore

G D Am
its getting dark too dark to see
theres a long black cloud following me

G D Am
i feel like im knockin on heavens door (knock knock knockin)

chorus
G D Am
knock knock knockin on heavens door
knock knock knockin on heavens door
knock knock knockin on heavens door
knock knock knockin on heavens door

solo
G D Am
------------------------------------------
-15~---15s13-12---------------------------
----------------12s10-12-10s12------------
------------------------------------------
------------------------------------------
------------------------------------------
G D Am
------------------------------------------
-15-------15s13--12-----------------17-17-
---------------------12s10--12------------
------------------------------------------
------------------------------------------
------------------------------------------
G D Am
------------------------------------------
-15~-----17--15--17--s17~~~s15s17~-----15-
------------------------------------------
------------------------------------------
------------------------------------------
------------------------------------------
G D Am
-15------15sX-------------------------------------
----------------13--13------12~---18s15s18s20-s20-
--------------------------------------------------
--------------------------------------------------
--------------------------------------------------
--------------------------------------------------
G D Am
-15~------------------------20s19-20s19-20s19-20s19-
----------------------------------------------------
----------------------------------------------------
----------------------------------------------------
----------------------------------------------------
----------------------------------------------------
G D Am
--------------------------------------------------
-----------------------------17s15-17s15-17s15----
--------------------------------------------------
--------------------------------------------------
-----------------------------------------------10-
--------------------------------------------------
G D Am
ooh ooh ohh ohh
--------------------
--------------------
---4---2----0----2--
--------------------
--------------------
--------------------

ending
G
-3---------3-
-3-------3---
-4-----4-----
-5---5-------
-5-5---------
-3-----------

Copyrights
Auteur: ?
Componist: ?
Uitgever: ?
Meer details
Taal: Engels

Reacties

CommonCrawl [Bot]

Volg Muzikum