Eric Clapton
Let It Grow (Guitar tab)

let it grow


fig 1
Bm F#7
-----2---2-------
---3---3---2---2-
-----4-------3---
-----------------
-2---------------
---------2--------

verses
Bm F#7 D E G A
(1)standing at the crossroads trying to read the signs to tell me which way i should
(2)looking for a reason to check out on my mind trying hard to get a
(3)time is getting shorter theres much for you to do only ask and you will

Bm F#7 D E G A D
go to find the answer and all the time i know plant your love and let it grow
friend that i can count on but theres nothing left to show plant your love and let it grow
get what you are needing the rest is up to you plant your love and let it grow

chorus

chords
B/A# B/G# B/F#
# # #
4 4 4
4 4 4
4 4 4
1 # #
# 4 2

B B/A# B/G# B/F# E B A
let it grow let it grow let it blossom let it flow
in the sun the rain the snow love is loverly

F#7
let it grow

instrumental

chords

F#/A# E/G#
6 4
7 5
6 4
8 #
# #
# $

G D/F# Em Bm A
-----3---2-------------------------------10-
-0---------3-------0--3-0-----------2-------
-------------2---0---------------------2----
---------------2-----------------2----------
--------------------------9s--0-------------
--------------------------------------------

Resonator Guitar(Dobro)
G D/F# Em Bm F# Bm F#/A#


guitar solo

D/A E/G# G A Bm F#/A# D/A E/G# G A
-s7-----5s7-------5-7-------7-----9--------10---------4-7--3--7-3---5-9-
--------------s5------5--------7------7-------7---7-5------3------5-----
------------------------4s2---------------------7----------4------------
------------------------------------------------------------------------
------------------------------------------------------------------------
------------------------------------------------------------------------

coda

rpt2fade
Bm F#/A# D/A E/G# G A
-----7---9-----------10-9-7---------7--------9-
---7---7-----7----7---------7-9---8-------10---
-7-------------7----------------7-----7-9------
----------------------------------------------
----------------------------------------------
----------------------------------------------

Copyrights
Auteur: ?
Componist: ?
Uitgever: ?
Meer details
Taal: Engels

Reacties

CommonCrawl [Bot]

Volg Muzikum