Eric Clapton
Layla Umplugged Ver 2 (Guitar tab)

Layla Umplugged-Eric Clapton
Tabbed by Eric Silverman
Comments/Corrections:PeaceFrog226@comcast.net

This is the CORRECT version,
alot of people have been posting it WRONG, so here it is:



Main riff
Begining/Chorus

E:-----------------------------------------------------------
B:-----------------------------------------------------------
G:-----------------------------------------------------------
D:-5-5-7-7-5-3-------5-----7---------------------------------
A:-0-3-5-5-3-1-0---0-3-0---5---------------------------------
E:---------------3-------3-----------------------------------


E:-----------------------------------------------------------
B:-----------------------------------------------------------
G:-----------------------------------------------------------
D:-5-5-7-7-5-3-------5-5--7---5-5---------------------------
A:-0-3-5-5-3-1-0---0-3-3--5---0-3---------------------------
E:---------------3------------------------------------------

Verse
/ / / / / / / /
C# G#
What will you do when you get lonely.......

/ / / / / / / /
C# C D E

/ / / / / / / /
F# B E A
/ / / / /
F# B E hold

To Chorus

Copyrights
Auteur: ?
Componist: ?
Uitgever: ?
Meer details
Taal: Engels

Reacties

CommonCrawl [Bot]

Volg Muzikum