Eric Clapton
Let It Grow Outro (Guitar tab)

okay
this is my first tab, so i hope it will be of help to others.

E -8-----8-10-----11-----11---10-8-----------8---------10-----
B ---8--------8--------8--------------8----9---9----11----11--
G -----8--------8------------------10----8-------10-----------
D ------------------------------------------------------------
A ------------------------------------------------------------
E ------------------------------------------------------------

E -----8---10-----11-----11---10-8-----------8---------10-----
B ---8---8----8--------8--------------8----9---9----11----11--
G -8------------8------------------10----8-------10-----------
D ------------------------------------------------------------
A ------------------------------------------------------------
E ------------------------------------------------------------


Play the first riff once, and then repeat the second,
until i fades out!

Copyrights
Auteur: ?
Componist: ?
Uitgever: ?
Meer details
Taal: Engels

Reacties

CommonCrawl [Bot]

Volg Muzikum