Eric Clapton

Eric Clapton
Tears In Heaven Ver 7 (Guitar tab)

Author/Artist: Eric Clapton
Title: Tears in Heaven
Album: Slowhand (i guess)
Transcribed by: DanAutomatic
Email: weirdo_38@hotmail.com

this is my first tab ever, using this tab thing, but i
believe that this is the most accurate version on the
internet. you can do whatever you want to make it
sound better. the song's hard to get first, but it's easy
to play after a few tries. i didn't put timing coz i don't know how. =D
just don't give up. hurts the fingers, but whatever. have fun with
it!

The song structure goes:
Intro
Verse 1
Verse 2
Chorus
Verse 1
Verse 2
Chorus
Intro
Bridge
Solo
Chorus
Verse 1
Verse 2.

------------------------------5/7\5-------------------------------------------
------------2h3p2--5---5--2---5/7\5--5/7\5--2-5---3---3---3---3-2---2---2-----
----------2--------4---4--2----------4/6\4--2-4---2---2---2---1-2---2---2-----
------------------------------------------------------------------------------
-------2--------------------------------------------------------0-0-0-0-0-----
--0h2--------------4-4-4--2-----------------------2-2-2-2-0-0-0---------------
INTRO

------------------------------------------------------------------------------
----------2-2h3p2-5---5--2---2---2---2---3---3-3-2---2---0---0---2---3--------
------------------4---4--2---2---2---2---2---2-2-2---2---1---1---2---4--------
------------------------------------------------------------------------------
-------2----------------------------------------------------------------------
--0h2-------------4-4-4--2-2-2-2-0-0-0-0-2-2-2-2-0-0-0-0-0-0-0-0-0-0-0--------
VERSE 1

-----------------------------5/7\5--------------------------------------------
----------2-2h3p2-5---5--2---5/7\5---5/7\5--2-5--3---3-3-2---2---0---0---2-4--
------------------4---4--2-----------4/6\4--2-4--2---2-2-2---2---1---1---2-3--
------------------------------------------------------------------------------
-------2----------------------------------------------------------------------
--0h2-------------4-4-4--2-----------------------2-2-2-2-0-0-0-0-0-0-0-0-0-0--
VERSE 2

----------------------1---1---1--------0---0---0------------------------------
-----2---2---2--------2---2---2--------2---2---2--------2---5---2--------3----
-----2---2---2------1---1---1---1----0---0---0---0------3---3---3--------2----
---4---4---4---4--3----------------2------------------2---2---2---2----4---4--
---------------------------------------------------------------------2--------
-2--------------------------------------------------2-------------------------
CHORUS

------------------------------------------------------------------------------
-3---3-----3-3---3------------------------------------------------------------
-2---2-----2-2---2------------------------------------------------------------
---4---4----------------------------------------------------------------------
------------------------------------------------------------------------------
---------0-----0--------------------------------------------------------------
CHORUS (CON'T)

-----0-0-------------------------------------|--------------------------------
-----1-1--3---3--1---1----3---3-0---0---3---3|-0---0----3---0-----------------
---0------0---0--2---2----2---2-0---0---2---2|-0---0----2---0-----------------
------------0------2---2----------0---0------|---2---2----0---0---------------
-3--------2---2--0---0-----------------------|--------------------------------
--------------------------2-2-2-3---3---2-2-2|-0--------2---3-----------------
BRIDGE (Fill 1)

------------------------------------------------------------------------------
-0---0---2---3----------------------------------------------------------------
-1---1---2---4----------------------------------------------------------------
------------------------------------------------------------------------------
------------------------------------------------------------------------------
-0-0---0-0-0-0----------------------------------------------------------------
(Fill 2)

-----------12-12/14---------10-12---------------------------------------------
-12b14r10-----------12b14r--------12b14r-10-12vvvv----------------------------
------------------------------------------------------------------------------
------------------------------------------------------------------------------
------------------------------------------------------------------------------
------------------------------------------------------------------------------
SOLO (uh, this is REALLY done with a slide guitar, but whatever. try it.)

-----------12-12/14-----------10-12-------------------------------------------
-12b14r10-----------12/14vvvv-------12/14-10-10/12----------------------------
------------------------------------------------------------------------------
------------------------------------------------------------------------------
------------------------------------------------------------------------------
------------------------------------------------------------------------------
SOLO (CON'T)

OptimusPrime

Toegevoegd door OptimusPrime op zo 01 dec, 2002 9:41 am

Auteur: ?
Componist: ?
Uitgever: ?
Taal: Engels

Reacties

CommonCrawl [Bot]

Volg Muzikum