Eric Clapton
Knocking On Heavens Door (Bass tab)

knocking on heaven's door - eric clapton - the album 'time pieces'

i think i got all of this right... it may be a little different but it
sounds good. its really easy, its slow & just repeats over and over and
over....

verse:

G---------------------------
D--5--5-4----------9-7-5----
A---------5-7-------------7-
E--------------5------------

G---------------------------
D--5--5-4-------------------
A---------5-7-----------5---
E--------------5--5-7-8-----


chorus:

G----------------------------
D--5---------------9-7-5-----
A----5-7-5--5-7-----------7--
E----------------5-----------

G----------------------------
D--5-------------------------
A----5-7-5--5-7----------5---
E---------------5--5-7-8-----


my email is agentfelix35@hotmail.com

Copyrights
Auteur: ?
Componist: ?
Uitgever: ?
Meer details
Taal: Engels

Reacties

CommonCrawl [Bot]

Volg Muzikum