Eric Clapton

Eric Clapton
Son And Sylvia (Guitar tab)

SON & SYLVIA
Eric Clapton

from the album "Reptile" (2001)


Tabbed by Matteo Piu (slowhand83@libero.it)


-----------0-----------------------0-----------------------3--------2-----
--------2-----------2-----------2-----------2-----------3--------------3--
-----2-----------2-----2-----1-----------1-----1-----0-----------0--------
--------------------------------------------------------------------------
--------------------------------------------------------------------------
--2-----------2-----------0-----------0-----------3-----------3-----------


-----------------------------------0-----------------------0--------------
-----------0-----------0--------2-----------2-----------2-----------2-----
--------2-----------2--------2-----------2-----2-----1-----------1-----1--
-----2-----------2--------------------------------------------------------
--0-----------0-----------------------------------------------------------
--------------------------2-----------2-----------0-----------0-----------


-----------3-----------3-----------2-----------------------2--------------
--------3-----------2-----------0-----------0-----------0-----------0-----
-----0-----------2-----------2-----------2-----2-----1-----------1-----1--
--------------------------0-----------0-----------0-----------0-----------
--------------0-----------------------------------------------------------
--0-----------------------------------------------------------------------


-----------0--------------------------------------------------------------
--------0-----------0--------------3-----------0-----------2-----------2--
-----2-----------2-----2--------2-----------2-----------1-----------1-----
-----------------------------0-----------0-----------2-----------2--------
--4-----------4-----------2-----------------------0-----------0-----------
--------------------------------------0-----------------------------------


-----------------------------------------------
-----------0-----------0-----------0--------0--
--------2-----------2-----------2--------2-----
-----0-----------0-----------0-----------------
-----------------------------------------------
--2-----------2-----------0-----------0--------


Now begin solo


I think this is a correct part, but I don't know the second part, so for correction you mail me.

Thanks Matteo slowhand83@libero.it

OptimusPrime

Toegevoegd door OptimusPrime op zo 01 dec, 2002 9:40 am

Auteur: ?
Componist: ?
Uitgever: ?
Taal: Engels

Reacties

CommonCrawl [Bot]

Volg Muzikum