Eric Clapton

Eric Clapton
Tears In Heaven Ver 5 (Guitar tab)

Tears in Heaven

By Eric Clapton

by Brian S.

key - * = fill 1
** = fill 2
*** = fill 3

Intro :
Em7 E A D
e----------|------------------------------------------------|
b----------|---2h3p2------5----5--2~~----2-----2----2----3--|
g----------|---------2----4----4--2~~----2-----2----2----2--|
d----------|-2----------------------------------------------|
a-------0~~|------------------------------------------------|
e---0h2----|-----------------4----2~~--2----2--0--0---0---2-|

E7
e-----------------------------------------------|
b--3---3----3---2-------2----2----2-------------|
g--2---2----1---2-------2----2----2-------------|
d-----------------------------------------------|
a--------------------0-----0----0----------0~---|
e----2----2--(0)-----------------------0h2------|


Guitar 2 fills :
fill 1 fill 2
e--/7--5------------------------|--------------------------|
b----------7--5------5----3~~---|--7--9--9h10~--9--7--9--3-|
g-----------------6-------2~~---|------------------------2-|
d-------------------------------|--------------------------|
a-------------------------------|--------------------------|
e-------------------------------|--------------------------|
fill 3
e----------------------------|
b----------2h3p2-------------|
g------2h4-------4p2-2-------|
d--2h4-----------------2-----|
a----------------------------|
e----------------------------|

Em7 E A D
e----------|------------------------------------------------|
b----------|---2h3p2------5----5--2~~----2-----2----2----3--|
g----------|---------2----4----4--2~~----2-----2----2----2--|
d----------|-2----------------------------------------------|
a-------0~~|------------------------------------------------|
e---0h2----|-----------------4----2~~--2----2--0--0---0---2-|
Would you know my name.*
Would it be the same? **

e---------------------------------------|
b--3---3----2----3--0-------0----2---3--|
g--2---2----2----2--2-------1----2---4--|
d---------------------------------------|
a---------------------------------------|
e----2---------2----------0----0---0----|
If i saw you in heaven?
If i saw you in heaven?

Chorus :

F#-7 Db
e--------2-----------2-------------1----------1---------0-----|
b--2-----------2--------------2----------2----------2---------|
g--2-----------2--------------1----------1----------0---------|
d-------------------------------------------------------------|
a-------------------------------------------------------------|
e-----2------2-----2----2--------1-----1----1-----0----0------|
I must be strong. And carry on.

e-----------0----------------------------------------------|
b------2---------------2---------2----2----2----------3----|
g------0----------3--3-3----3----3----3----3--------2------|
d----------------------------------------0--------0--------|
a----------------------------------------------------------|
e---0-----0----0--2-------2----2----2----------------------|
Cause i know

e-------------------------------0-------|
b--------3---------------3--3~~---3-----|
g------2---2~~~----------2--2~~---------|
d----0----------------------------------|
a--0------------------------------------|
e---------------------------------------|
I dont belong. Here in Heaven.

Bridge :
e----------------------------------------------------------|
b--------------1------------------1----1~~----3----4--4----|
g--------------0------------------0----2~~----2----3--3----|
d------------2----------------2--------2~~--0----0---------|
a----0h2h3~~--------------3-2------------------------------|
e----------------------------------------------------------|
*** Time can bring you down...

e----------------------------------|
b---0-----0----2----3~-------------|
g---0-----1----2----2~-------------|
d------------0---0-----------------|
a----------------------------------|
e------0---------------------------|

OptimusPrime

Toegevoegd door OptimusPrime op zo 01 dec, 2002 9:40 am

Auteur: ?
Componist: ?
Uitgever: ?
Taal: Engels

Reacties

CommonCrawl [Bot]

Volg Muzikum