Eric Clapton

Eric Clapton
Swing Low (Guitar chord)

#
#

Date: Sun, 11 Feb 1996 19:45:50 -0500
From: Phil Weicker


Song: Swing Low Sweet Chariot as recorded by Eric Clapton
(traditional/arranged by Eric Clapton)
Album: There's One in Every Crowd / Timepieces : Best of Eric Clapton
From: Phil Weicker icn@iaw.on.ca

SWING LOW SWEET CHARIOT

Intro: first time, no lead

E / / / A / / / E / / / B / / /

second time, play chords

E / / / A / E / / / B / E / / /

with

E A E
-------------------------------------------------------------------------
-------------------------------------------------------------------------
----------9--11--9--11b13-------13r11--9------9--------------------------
----9--11---------------------------------11-----------------------------
-11----------------------------------------------------------------------
-------------------------------------------------------------------------

E B E
-------------------------------------------------------------------------
-------------------------------------------------------------------------
-/9--9--9----------------------------------------------------------------
-----------11--9---------------------------------------------------------
-------------------------------------------------------------------------
-------------------------------------------------------------------------
E A
Swing low, sweet chariot
E B
Comin' for to carry me home...
E A E
Swing low, sweet chariot
E / B / E
Comin' for to carry me home.

Next verse, same chords.
E A
I looked over Jordan and what did I see...
E B
Comin' for to carry me home...
E A / E /
I saw a band of angels, coming after me...
E / B / E /
Comin' for to carry me home

This sounds good with bar chords and wah-wah-

E A B
EADGBE EADGBE EADGBE
X79997 577655 799877

All corrections, additions welcomed, as are requests for the solo. I
haven't sat down to figure it out yet, but I will if somebody wants it.



--=====================_824103950==_
Content-Type: text/plain; charset="us-ascii"
Content-Disposition: attachment; filename="swing_low_sweet_chariot.txt"

Song: Swing Low Sweet Chariot as recorded by Eric Clapton
(traditional/arranged by Eric Clapton)
Album: There's One in Every Crowd / Timepieces : Best of Eric Clapton
From: Phil Weicker icn@iaw.on.ca

SWING LOW SWEET CHARIOT

Intro: first time, no lead

E / / / A / / / E / / / B / / /

second time, play chords

E / / / A / E / / / B / E / / /

with

E A E
-------------------------------------------------------------------------
-------------------------------------------------------------------------
----------9--11--9--11b13-------13r11--9------9--------------------------
----9--11---------------------------------11-----------------------------
-11----------------------------------------------------------------------
-------------------------------------------------------------------------

E B E
-------------------------------------------------------------------------
-------------------------------------------------------------------------
-/9--9--9----------------------------------------------------------------
-----------11--9---------------------------------------------------------
-------------------------------------------------------------------------
-------------------------------------------------------------------------
E A
Swing low, sweet chariot
E B
Comin' for to carry me home...
E A E
Swing low, sweet chariot
E / B / E
Comin' for to carry me home.

Next verse, same chords.
E A
I looked over Jordan and what did I see...
E B
Comin' for to carry me home...
E A / E /
I saw a band of angels, coming after me...
E / B / E /
Comin' for to carry me home

This sounds good with bar chords -

E A B
EADGBE EADGBE EADGBE
X79997 577655 799877

All corrections, additions welcomed, as are requests for the solo. I
haven't sat down to figure it out yet, but I will if somebody wants it.



--=====================_824103950==_--

OptimusPrime

Toegevoegd door OptimusPrime op zo 01 dec, 2002 9:40 am

Auteur: ?
Componist: ?
Uitgever: ?
Taal: Engels

Reacties

CommonCrawl [Bot]

Volg Muzikum