Eric Clapton
Nobody Knows You When Youre Down And Out (Guitar chord)

#


From bell@wavetech.net Sun Mar 9 21:29:26 1997
Date: Sun, 09 Mar 97 13:16:29 PST
From: The Bell's
To: guitar@olga.net
Subject: Tab: No Body Knows you when your down and out, by Eric clapton

NOBODY KNOWS YOU WHEN YOUR DOWN AND OUT
Eric Clapton

This is a fun easy version of the song, the melody line is a bit
diferent than the Eric Clapton verson but its easy to catch on to.

C E7 A7
Once I lived the life of a millionaire
Dm A7 Dm A7 Dm
Spent all my money (lord) and I didn't care
F D7 C E7 A7
Taking my friends out for a mighty good time
D7 G7
Drinking fancy liquor, champagne and wine

But then I began to fall so low
I didn't have a dollar, I had no place to go
Well if I get my hands on a dollar again
I'll hang on to it till the eagle grins

Nobody knows you
When your down and out my friend
In my pocket I havent got a pennie
And as for friends I ain't got to many

But when I get back on my feet again
Everybody wants to be my long lost friend
It's mighty strange with out any doubt
Nobody Knows you when your down and out



X=Strum up open
V=Vibrato
C E7 A7 Dm A7 Dm A7Dm F D7 C E7 A7
E---------0------------0-0---1-1-x-0-0-x-1-0-1--------------------0---
B---------1------------2-2---3-3-x-2-2-x-3-2-3--------------------2---
G---------0------1-----0-0---2-2-x-0-0-x-2-0-2--------------------0---
D---------2------0-----2-2---0-0-x-2-2-x-0-2-0--------------------2---
A---0-2-3-3--3-2-2-2-0-0-0---------0-0-----0------------3-3-2-1-0-0---
E-3-------0------0------------------------------0-1V-3V---------------

D7 G7
E--2-2-2-2-2-2-1-1-1--
B--1-1-0-1-0-1-0-0-0--
G--2-2-2-2-2-2-0-0-0-- REPEAT FOR
D--0-0-0-0-0-0-0-0-0-- EACH VERSE
A--------------2-2-2--
E--------------3-3-3--

End:
D7 G7 ?
E-2-----------------1--------------------------0----------------------
B-1-----------------0--------------------------3----------------------
G-2-----------------0--------------------------0----------------------
D-0-----------------0--------------------------2----------------------
A-------------------2--3-3-2-2-1-1-0-0---0-2-3-3----------------------
E-------------------3------------------3-------0----------------------
WELL I SAID WHEN YOUR DOWN AND OUT---------------------- Yeah!

Enjoy!

E-Mail
bell@wavetech.net

Copyrights
Auteur: ?
Componist: ?
Uitgever: ?
Meer details
Taal: Engels

Reacties

CommonCrawl [Bot]

Volg Muzikum