Eric Clapton
Crossroads Ver 2 (Guitar tab)

Eric Clapton
Crossroads

Tabed by David White
E-mail: faygo45@hotmail.com
Aol screen name: ProdigalSon68

this is only the intro and outro parts of this song
once you learn this you'll love it

Asterisks mark the beat.

Intro:

-----------------------------------------------------------------------
--------------------------------------2-0-2------------2-0-------------
----2-0-2--0-2-0-----2-0-2--0-2-0-----2-0-2--0-2-0-----2-0-2--0-2-0----
-----------------------------------------------------------------------
--0--------------3-0--------------3-0--------------3-0--------------3--
-----------------------------------------------------------------------
* * * * * * * * * * * * * * * *


------------2---------2-------2------------------------------------------
----1---------1---------1-------1----------------------------------------
------2-2-------2---------2-2-----2-----2-0-2--0-2-0-----2-0-2--0-2-0----
--0-------0---------0----------------------------------------------------
------------------3-----------------3-0--------------3-0--------------3--
-------------------------------------------------------------------------
* * * * * * * * * * * * * * * *


---------------------------------------------5-------------------------
-----------------------------------------5-----8-5-----5------5-5------
----------------------2-5-2-7-5---5-5----5-6-------7-5-5-6----6-6------
--2-2-2-2-2-2-2-2-2-4-----------7-----7---------------------7-7-7------
--2-2-2-2-2-2-2-2-------------------------------------------------7----
--0-0-0-0-0-0-0-0------------------------------------------------------
* * * * * * * * * * * * * * * *

AND THEN THE OUTRO PART IS GOES

Outro:

----------------------------------------------------------------------
----------------------------------2-----------------------------------
----2-0-2-0--------0--------------0-----------------------------------
------------2--0-2---2-0-2-0------2-----------------------------------
-----------------------------3-0--0-----------------------------------
----------------------------------------------------------------------
* * * * * *****......

Copyrights
Auteur: ?
Componist: ?
Uitgever: ?
Meer details
Taal: Engels

Reacties

CommonCrawl [Bot]

Volg Muzikum