Eric Clapton

Eric Clapton
Promise (Bass tab)

Date: Thu, 28 Mar 2002 15:04:56 +0200
From: "Jan Bjorklund"
Subject: c/clapton_eric/promise.btab

eric clapton_promises

TablEdited by Jan Bjorklund, Finland
You are welcome to request for tabs!
Fingering and positions as suggested by TablEdit, please use common sense!


TablEdited by Jan Bjorklund
Tuning : E A D G Time Signature: 4/4

| | | | | | | |
|-0-----------0---0----------------|-0-----------0---0----------------|
|----------------------------------|----------------------------------|
|----------------------------------|----------------------------------|
|----------------------------------|----------------------------------|

| | | | | | | |
|-0-----------0---0----------------|-0-----------0---0----------------|
|----------------------------------|----------------------------------|
|----------------------------------|----------------------------------|
|----------------------------------|----------------------------------|

| | | | | | | |
||0-----------0---7----------------|-0-----------0---0-------4--------|
|*---------------------------------|----------------------------------|
|*---------------------------------|----------------------------------|
||---------------------------------|----------------------------------|

| | | | | | | |
|-5-----------5---5----------------|-5-----------5---5---------------||
|----------------------------------|---------------------------------||
|----------------------------------|---------------------------------||
|----------------------------------|---------------------------------||

>1| | | | | | | |
|-0-----------0---0----------------|-0-----------0---0----------------|
|----------------------------------|----------------------------------|
|----------------------------------|----------------------------------|
|----------------------------------|----------------------------------|

| | | | | | | |
|-7-----------7---7----------------|-7-------7-------0-----------0----|
|----------------------------------|----------------------------------|
|----------------------------------|----------------------------------|
|----------------------------------|----------------------------------|

| | | | | |
|-0---------------0-----------0----|-0---------------||
|----------------------------------|-----------------*|
|----------------------------------|-----------------*|
|----------------------------------|-----------------||

>2| | | | | | | |
|-------------0---0----------------||5-----------5---5----------------|
|----------------------------------|*---------------------------------|
|----------------------------------|*---------------------------------|
|----------------------------------||---------------------------------|

| | | | | | | |
|-4-----------4---4----------------|-7-----------7---2----------------|
|----------------------------------|----------------------------------|
|----------------------------------|----------------------------------|
|----------------------------------|----------------------------------|

| | | | | | | |
|-7-----------7---7---------------||-5-----------5---5----------------|
|---------------------------------*|----------------------------------|
|---------------------------------*|----------------------------------|
|---------------------------------||----------------------------------|

| | | | | | | |
|-4-----------4---4----------------|-7-----------7---7----------------|
|----------------------------------|----------------------------------|
|----------------------------------|----------------------------------|
|----------------------------------|----------------------------------|

| | | | | | | |
|-7-------7-------0-----------0----|-7---------------0-----------0----|
|----------------------------------|----------------------------------|
|----------------------------------|----------------------------------|
|----------------------------------|----------------------------------|

| | | | | |
|-0----------------|-5-----------5---5----------------|
|------------------|----------------------------------|
|------------------|----------------------------------|
|------------------|----------------------------------|

| | | | | | | |
|-5-----------5---5----------------|-4-----------4---4----------------|
|----------------------------------|----------------------------------|
|----------------------------------|----------------------------------|
|----------------------------------|----------------------------------|

| | | | | | | |
|-4-----------4---4----------------|-2-----------2---2----------------|
|----------------------------------|----------------------------------|
|----------------------------------|----------------------------------|
|----------------------------------|----------------------------------|

| | | | | | | |
|-2-----------2---2----------------|-0-----------0---0----------------|
|----------------------------------|----------------------------------|
|----------------------------------|----------------------------------|
|----------------------------------|----------------------------------|

| | | | | | | |
|-0-----------0---0----------------|-5-----------5---5----------------|
|----------------------------------|----------------------------------|
|----------------------------------|----------------------------------|
|----------------------------------|----------------------------------|

| | | | | | | |
|-5-----------5---5----------------|-4-----------4---4----------------|
|----------------------------------|----------------------------------|
|----------------------------------|----------------------------------|
|----------------------------------|----------------------------------|

| | | | | | | |
|-4-----------4---4----------------|-2-----------2---2----------------|
|----------------------------------|----------------------------------|
|----------------------------------|----------------------------------|
|----------------------------------|----------------------------------|

| | | | | | | |
|-2-----------2---2----------------|-0---------------0-----------0----|
|----------------------------------|----------------------------------|
|----------------------------------|----------------------------------|
|----------------------------------|----------------------------------|

| | | | | | | |
|-7---------------0-----------0----|-0-------4-------5-----------5----|
|----------------------------------|----------------------------------|
|----------------------------------|----------------------------------|
|----------------------------------|----------------------------------|

| | | | | | | |
|-5---------------5-----------5----|-5---------------0-----------0----|
|----------------------------------|----------------------------------|
|----------------------------------|----------------------------------|
|----------------------------------|----------------------------------|

| | | | | | | |
|-0---------------0-----------0----|-0---------------7-----------7----|
|----------------------------------|----------------------------------|
|----------------------------------|----------------------------------|
|----------------------------------|----------------------------------|

| | | | | | | |
|-7---------------7-------7--------|-0-----------0---0----------------|
|----------------------------------|----------------------------------|
|----------------------------------|----------------------------------|
|----------------------------------|----------------------------------|

| | | | | | | |
|-0-----------0---0----------------|-0--------------------------------|
|----------------------------------|----------------------------------|
|----------------------------------|----------------------------------|
|----------------------------------|----------------------------------|




Created with TablEdit http://www.tabledit.com/

OptimusPrime

Toegevoegd door OptimusPrime op zo 26 mei, 2002 6:46 pm

Auteur: ?
Componist: ?
Uitgever: ?
Taal: Engels

Reacties

CommonCrawl [Bot]

Volg Muzikum