Eric Clapton
Layla (Bass tab)

Date: Thu, 28 Mar 2002 14:59:24 +0200
From: "Jan Bjorklund"
Subject: c/clapton_eric/layla.btab

eric clapton_layla - original

TablEdited by Jan Bjorklund, Finland
You are welcome to request for tabs!
Fingering and positions as suggested by TablEdit, please use common sense!


TablEdited by Jan Bjorklund
Tuning : E A D G Time Signature: 4/4

| | | |
||-----------------------------------------------------------------|
|*0-----------------------0----------------------------------------|
|*--------------------------------1---------------------1----------|
||-----------------------------------------------------------------|

| | | |
|------------------------------------------------------------------|
|---------------------------------0--------------------------------|
|-3-----------------------3-----------------------------0---3------|
|------------------------------------------------------------------|

| | | |
|------------------------------------------------------------------|
|-0-----------------------0----------------------------------------|
|---------------------------------1-----------------------1-----3--|
|------------------------------------------------------------------|

| | | |
|------------------------------------------------------------------|
|-------------------------------0----------------------------------|
|-------------------------3-----------------------------0---3------|
|------------------------------------------------------------------|

| | | |
|------------------------------------------------------------------|
|-0---------------------0------------------------------------------|
|---------------------------------1-----------------------1--------|
|------------------------------------------------------------------|

| | | |
|-----------------------------------------------------------------||
|---------------------------------0-------------------------------||
|-3-----------------------3-----------------------------0---3-----||
|-----------------------------------------------------------------||

>1| |
|----------------------------------|
|-0---------------------0----------|
|-------------------------------1--|
|----------------------------------|

| | | |
|------------------------------------------------------------------|
|------------------------------------------------------------------|
|-----------------------1-------3-----------------3----------------|
|------------------------------------------------------------------|

| | | |
|------------------------------------------------------------------|
|-------------------------------------------------2-------4--------|
|-4---------------4---------------4-----------4--------------------|
|------------------------------------------------------------------|

| | | |
|-1---------------1---------------1-----------1---4-------8--------|
|------------------------------------------------------------------|
|------------------------------------------------------------------|
|------------------------------------------------------------------|

| | | |
|------------------------------------------------------------------|
|-------------------------------------------------0----------------|
|-4---------------4---------------3--------------------------------|
|------------------------------------------------------------------|

| | | |
|------------------------------------------------------------------|
|-2---------------2---------------2---------------2----------------|
|---------------------------------------------------2--------------|
|---------------------------------------------------------0--------|

| | | |
|------------------------------------------------------------------|
|---------------------------------------------------------1--------|
|-------------------------0-------2-----------2---4----------------|
|-2---------------4------------------------------------------------|

| | | |
|-------------------------1-------2-----------2---5-------9--------|
|-2-----------2---4------------------------------------------------|
|------------------------------------------------------------------|
|------------------------------------------------------------------|

| | | |
|-----------------11--9---6-------4---------------4---2------------|
|-4-------------------------------------------------------4--------|
|------------------------------------------------------------------|
|------------------------------------------------------------------|

| | | |
|-----------------------------------------------------------------||
|-2---------------2---0-------------------------------------------*|
|-------------------------2-------0-------------------------------*|
|-----------------------------------------------------------------||

>4| | | |
|------------------------------------------------------------------|
|-0---------------------0------------------------------------------|
|-------------------------------1-----------------------1-------3--|
|------------------------------------------------------------------|

| | | |
|------------------------------------------------------------------|
|---------------------------------0--------------------------------|
|-------------------------3---------------------------0---3--------|
|------------------------------------------------------------------|

>6| | | |
|------------------------------------------------------------------|
|-0---------------------0------------------------------------------|
|-------------------------------1-----------------------1-------3--|
|------------------------------------------------------------------|

| | | |
|------------------------------------------------------------------|
|---------------------------------0--------------------------------|
|-------------------------3-------------------------------0---3----|
|------------------------------------------------------------------|

| | | |
|------------------------------------------------------------------|
|-0----------------------------------------------------------------|
|------------------------------------------------------------------|
|------------------------------------------------------------------|



Created with TablEdit http://www.tabledit.com/

Copyrights
Auteur: ?
Componist: ?
Uitgever: ?
Meer details
Taal: Engels

Reacties

CommonCrawl [Bot]

Volg Muzikum