Eric Clapton
Badlove (Bass tab)

Date: Thu, 28 Mar 2002 14:39:17 +0200
From: "Jan Bjorklund"
Subject: c/clapton_eric/badlove.btab

eric clapton_badlove

TablEdited by Jan Bjorklund, Finland
You are welcome to request for tabs!
Fingering and positions as suggested by TablEdit, please use common sense!


TablEdited by Jan Bjorklund
Tuning : E A D G Time Signature: 4/4

| | | |
|------------------------------------------------------------------|
|---------------------------------------------------------0--------|
|-------------------------------------------------3-----------3----|
|------------------------------------------------------------------|

| | | |
|-----2-------5----------------------------------------------------|
|-5-----------------------5----------------------------------------|
|-------------------------------------------------5-------3---5----|
|------------------------------------------------------------------|

| | | |
|-------------0----------------------------------------------------|
|-3-----------------------3-------------------------------0--------|
|-------------------------------------------------3-----------3----|
|------------------------------------------------------------------|

| | | |
|-------------5-----------7----------------------------------------|
|-5---7---------------------------5--------------------------------|
|-------------------------------------------------8----------------|
|---------------------------------------------------------6--------|

| | | |
|------------------------------------------------------------------|
|------------------------------------------------------------------|
|------------------------------------------------------------------|
|------------------------------------------------------------------|

| | | |
|------------------------------------------------------------------|
|-0----------------------------------------------------------------|
|-------------------------0----------------------------------------|
|------------------------------------------------------------------|

| | | |
|------------------------------------------------------------------|
|------------------------------------------------------------------|
|------------------------------------------------------------------|
|-3-----------------------3-------3--------------------------------|

| | | |
|------------------------------------------------------------------|
|-0-----------------------0----------------------------------------|
|---------------------------------3-------3-------2-------0--------|
|------------------------------------------------------------------|

| | | |
|------------------------------------------------------------------|
|------------------------------------------------------------------|
|-----------------------------------------0-------2-------3--------|
|-3-----------------------3-------3---3----------------------------|

| | | |
|------------------------------------------------------------------|
|-0----------------------------------------------------------------|
|-------------------------3-------3--------------------------------|
|------------------------------------------------------------------|

| | | |
|------------------------------------------------------------------|
|------------------------------------------------------------------|
|------------------------------------------------------------------|
|-3-----------------------3-------3--------------------------------|

| | | |
|-------------------------2----------------------------------------|
|-0----------------------------------------------------------------|
|---------------------------------3---------------3-------1--------|
|------------------------------------------------------------------|

| | | |
|------------------------------------------------------------------|
|------------------------------------------------------------------|
|-------------------------------------------------0-------1--------|
|------------------------------------------------------------------|

| | | |
|------------------------------------------------------------------|
|------------------------------------------------------------------|
|-2-----------------------2-------2--------------------------------|
|------------------------------------------------------------------|

| | | |
|------------------------------------------------------------------|
|---------------------------------2-------0-------2----------------|
|------------------------------------------------------------------|
|-0-----------------------0----------------------------------------|

| | | |
|------------------------------------------------------------------|
|------------------------------------------------------------------|
|-0-----------------------0-------0--------------------------------|
|------------------------------------------------------------------|

| | | |
|------------------------------------------------------------------|
|---------------------------------------------------------2---4----|
|-0-----------------------0-------0--------------------------------|
|------------------------------------------------------------------|

| | | |
|------------------------------------------------------------------|
|---------------------------------------------------------2--------|
|-2-----------------------2-------2--------------------------------|
|------------------------------------------------------------------|

| | | |
|------------------------------------------------------------------|
|------------------------------------------------------------------|
|------------------------------------------------------------------|
|-0-----------------------0-------0--------------------------------|

| | | |
|------------------------------------------------------------------|
|---------------------------------------------------------2---4----|
|-0-----------------------0-------0--------------------------------|
|------------------------------------------------------------------|

| | | |
|------------------------------------------------------------------|
|------------------------------------------------------------------|
|-0-----------------------0-------0-----------------------2---4----|
|------------------------------------------------------------------|

| | | |
|------------------------------------------------------------------|
|------------------------------------------------------------------|
|-1-----------------------3----------------------------------------|
|------------------------------------------------------------------|

| | | |
|------------------------------------------------------------------|
|-------------------------0----------------------------------------|
|-0----------------------------------------------------------------|
|------------------------------------------------------------------|

| | | |
|------------------------------------------------------------------|
|------------------------------------------------------------------|
|-------------------------3----------------------------------------|
|-3----------------------------------------------------------------|

| | | |
|------------------------------------------------------------------|
|-0-------0-------0---------------0---------------0----------------|
|---------------------3---0---------------0---------------3--------|
|------------------------------------------------------------------|

| | | |
|------------------------------------------------------------------|
|------------------------------------------------------------------|
|-1-----------------------3----------------------------------------|
|------------------------------------------------------------------|

| | | |
|------------------------------------------------------------------|
|-------------------------0----------------------------------------|
|-0----------------------------------------------------------------|
|------------------------------------------------------------------|

| | | |
|------------------------------------------------------------------|
|------------------------------------------------------------------|
|-------------------------3----------------------------------------|
|-3----------------------------------------------------------------|

| | | |
|------------------------------------------------------------------|
|------------------------------------------------------------------|
|------------------------------------------------------------------|
|---------3-------3-------3-------3--------------------------------|

| | | |
|------------------------------------------------------------------|
|-0----------------------------------------------------------------|
|-------------------------3----------------------------------------|
|------------------------------------------------------------------|

| | | |
|------------------------------------------------------------------|
|------------------------------------------------------------------|
|------------------------------------------------------------------|
|-3-----------------------3-------3-----------------------1---0----|

| | | |
|------------------------------------------------------------------|
|-0-----------------------------------------------0----------------|
|-------------------------3----------------------------------------|
|---------0-------1------------------------------------------------|

| | | |
|------------------------------------------------------------------|
|------------------------------------------------------------------|
|------------------------------------------------------------------|
|-3-------3---------------3-------3-------3---------------3--------|

| | | |
|------------------------------------------------------------------|
|-0----------------------------------------------------------------|
|-------------------0-----3----------------------------------------|
|-----------------3------------------------------------------------|

| | | |
|------------------------------------------------------------------|
|------------------------------------------------------------------|
|------------------------------------------------------------------|
|-3-----------------------3-------3--------------------------------|

| | | |
|------------------------------------------------------------------|
|-0----------------------------------------------------------------|
|-------------------------3-------------------------------1--------|
|------------------------------------------------------------------|

| | | |
|------------------------------------------------------------------|
|------------------------------------------------------------------|
|------------------------------------------------------------------|
|------------------------------------------------------------------|

| | | |
|------------------------------------------------------------------|
|-0----------------------------------------------------------------|
|-------------------------3-------3---------------0----------------|
|------------------------------------------------------------------|

| | | |
|-----------------------------------------0------------------------|
|-------------------------------------------------3----------------|
|------------------------------------------------------------------|
|-3-----------------------3-------3--------------------------------|

| | | |
|------------------------------------------------------------------|
|-0-------2-------3------------------------------------------------|
|-------------------------3----------------------------------------|
|------------------------------------------------------------------|

| | | |
|------------------------------------------------------------------|
|------------------------------------------------------------------|
|---------0---------------0----------------------------------------|
|-3---------------3---------------3-------3-------1-------0--------|

| | | |
|------------------------------------------------------------------|
|-0----------------------------------------------------------------|
|-------------------------3-------3-----------------------2---0----|
|------------------------------------------------------------------|

| | | |
|------------------------------------------------------------------|
|-------------------------------------0-------0--------------------|
|------------------------------------------------------------------|
|-3-----------------------3-------3-------3-------1-------0--------|

| | | |
|------------------------------------------------------------------|
|-0-----------3-----------0----------------------------------------|
|---------------------------------3-----------------------1--------|
|------------------------------------------------------------------|

| | | |
|------------------------------------------------------------------|
|------------------------------------------------------------------|
|------------------------------------------------------------------|
|------------------------------------------------------------------|

| | | |
|------------------------------------------------------------------|
|------------------------------------------------------------------|
|-2-----------------------2-------2--------------------------------|
|------------------------------------------------------------------|

| | | |
|------------------------------------------------------------------|
|------------------------------------------------------------------|
|------------------------------------------------------------------|
|-0-----------------------0-------0---------------0----------------|

| | | |
|------------------------------------------------------------------|
|------------------------------------------------------------------|
|-0-----------------------0-------0-------------------0------------|
|---------------------------------------------------------0---2----|

| | | |
|------------------------------------------------------------------|
|-------------------------2----------------------------------------|
|-0-------------------------------0---0---0------------------------|
|-------------------------------------------------2----------------|

| | | |
|------------------------------------------------------------------|
|------------------------------------------------------------------|
|-2-----------------------2-------2--------------------------------|
|------------------------------------------------------------------|

| | | |
|------------------------------------------------------------------|
|------------------------------------------------------------------|
|------------------------------------------------------------------|
|-0-----------------------0-------0--------------------------------|

| | | |
|------------------------------------------------------------------|
|-------------------------------------------------2----------------|
|-0-----------------------0-------0--------------------------------|
|------------------------------------------------------------------|

| | | |
|-4-------------------------------4-------2------------------------|
|-------------------------------------------------4---2------------|
|---------------------------------------------------------4--------|
|-------------------------------------------------------------5----|

| | | |
|------------------------------------------------------------------|
|------------------------------------------------------------------|
|-1-----------------------3----------------------------------------|
|------------------------------------------------------------------|

| | | |
|------------------------------------------------------------------|
|-------------------------0----------------------------------------|
|-0----------------------------------------------------------------|
|------------------------------------------------------------------|

| | | |
|------------------------------------------------------------------|
|------------------------------------------------------------------|
|-------------------------3----------------------------------------|
|-3----------------------------------------------------------------|

| | | |
|------------------------------------------------------------------|
|-0-------0-------0-------0-------0--------------------------------|
|-------------------------------------------------0----------------|
|------------------------------------------------------------------|

| | | |
|------------------------------------------------------------------|
|---------0-------3-----------------------2------------------------|
|-1-----------------------3----------------------------------------|
|------------------------------------------------------------------|

| | | |
|------------------------------------------------------------------|
|------------------------------------------------------------------|
|-0-------0---------------1-----------------------1-------0--------|
|------------------------------------------------------------------|

| | | |
|------------------------------------------------------------------|
|------------------------------------------------------------------|
|-------------------------3-------3--------------------------------|
|-3----------------------------------------------------------------|

| | | |
|------------------------------------------------------------------|
|------------------------------------------------------------------|
|------------------------------------------------------------------|
|---------3-------3-------3-------3--------------------------------|

| | | |
|------------------------------------------------------------------|
|-0----------------------------------------------------------------|
|-------------------------3----------------------------------------|
|-------------------------------------------------------------3----|

| | | |
|------------------------------------------------------------------|
|-----------------------------------------3-------3----------------|
|------------------------------------------------------------------|
|-3-----------------------3-------3--------------------------------|

| | | |
|------------------------------------------------------------------|
|-0-------2-------3---------------------------------------0---3----|
|-------------------------3---------------------------3------------|
|------------------------------------------------------------------|

| | | |
|-----------------0------------------------------------------------|
|------------------------------------------------------------------|
|-----------------------------------------0-------2-------3--------|
|-3-------3---3-------3---3---3---3--------------------------------|

| | | |
|------------------------------------------------------------------|
|-0-----------------------0----------------------------------------|
|---------------------------------3-----------------------3--------|
|------------------------------------------------------------------|

| | | |
|-----------------------------------------------------0------------|
|---------------------------------------------------------3---2----|
|------------------------------------------------------------------|
|-3-----------------------3-------3--------------------------------|

| | | |
|------------------------------------------------------------------|
|-0----------------------------------------------------------------|
|-------------------------3-------3-----------------------1--------|
|------------------------------------------------------------------|

| | | |
|------------------------------------------------------------------|
|------------------------------------------------------------------|
|------------------------------------------------------------------|
|------------------------------------------------------------------|

| | | |
|------------------------------------------------------------------|
|-0----------------------------------------------------------------|
|-------------------------3----------------------------------------|
|------------------------------------------------------------------|

| | | |
|------------------------------------------------------------------|
|------------------------------------------------------------------|
|------------------------------------------------------------------|
|-3-----------------------3-------3-----------------------3--------|

| | | |
|------------------------------------------------------------------|
|-0----------------------------------------------------------------|
|-------------------------3-------3--------------------------------|
|---------------------------------------------------------3--------|

| | | |
|-----------------------------------------0-------0----------------|
|-------------------------0---3---------------------------3---2----|
|------------------------------------------------------------------|
|-3-------------------------------3--------------------------------|

| | | |
|------------------------------------------------------------------|
|-0----------------------------------------------------------------|
|-------------------------3----------------------------------------|
|------------------------------------------------------------------|

| | | |
|---------------------------------------------0--------------------|
|-------------------------0-----------0---3-------0----------------|
|---------------------------------------------------------2--------|
|-3----------------------------------------------------------------|

| | | |
|------------------------------------------------------------------|
|-0----------------------------------------------------------------|
|-------------------------3-------------------------------1--------|
|------------------------------------------------------------------|

| | | |
|------------------------------------------------------------------|
|------------------------------------------------------------------|
|------------------------------------------------------------------|
|------------------------------------------------------------------|

| | | |
|------------------------------------------------------------------|
|------------------------------------------------------------------|
|------------------------------------------------------------------|
|------------------------------------------------------------------|

| | | |
|------------------------------------------------------------------|
|------------------------------------------------------------------|
|------------------------------------------------------------------|
|------------------------------------------------------------------|

| | | |
|------------------------------------------------------------------|
|------------------------------------------------------------------|
|------------------------------------------------------------------|
|------------------------------------------------------------------|

| | | |
|-------------------------2----------------------------------------|
|-------------------------------------------------3----------------|
|------------------------------------------------------------------|
|------------------------------------------------------------------|

| | | |
|------------------------------------------------------------------|
|------------------------------------------------------------------|
|---------1--------------------------------------------------------|
|------------------------------------------------------------------|

| | | |
|------------------------------------------------------------------|
|------------------------------------------------------------------|
|------------------------------------------------------------------|
|------------------------------------------------------------------|

| | | |
|------------------------------------------------------------------|
|------------------------------------------------------------------|
|------------------------------------------------------------------|
|------------------------------------------------------------------|

| | | |
|------------------------------------------------------------------|
|------------------------------------------------------------------|
|------------------------------------------------------------------|
|------------------------------------------------------------------|

| | | |
|------------------------------------------------------------------|
|------------------------------------------------------------------|
|------------------------------------------------------------------|
|------------------------------------------------------------------|

| | | |
|------------------------------------------------------------------|
|------------------------------------------------------------------|
|------------------------------------------------------------------|
|------------------------------------------------------------------|

| | | |
|------------------------------------------------------------------|
|------------------------------------------------------------------|
|------------------------------------------------------------------|
|------------------------------------------------------------------|

| | | |
|------------------------------------------------------------------|
|------------------------------------------------------------------|
|---------------------------------------------------------0---2----|
|------------------------------------------------------------------|

| | | |
|------------------------------------------------------------------|
|------------------------------------------------------------------|
|-3-------2-------0------------------------------------------------|
|-------------------------3-------------------------------2--------|

| | | |
|------------------------------------------------------------------|
|-------------------------0----------------------------------------|
|---------0-----------------------------------------------0---2----|
|------------------------------------------------------------------|

| | | |
|------------------------------------------------------------------|
|---------------------------------------------------------0--------|
|-3-------2-------0------------------------------------------------|
|-------------------------3-----------------------0----------------|

| | | |
|------------------------------------------------------------------|
|------------------------------------------------------------------|
|------------------------------------------------------------------|
|------------------------------------------------------------------|

| | | |
|------------------------------------------------------------------|
|-0-----------------------0----------------------------------------|
|------------------------------------------------------------------|
|------------------------------------------------------------------|

| | | |
|------------------------------------------------------------------|
|-0-----------------------0-------0--------------------------------|
|------------------------------------------------------------------|
|------------------------------------------------------------------|

| | | |
|------------------------------------------------------------------|
|------------------------------------------------------------------|
|-3----------------------------------------------------------------|
|-------------------------3----------------------------------------|

| | | |
|------------------------------------------------------------------|
|-0---------------0---------------0---------------0----------------|
|------------------------------------------------------------------|
|------------------------------------------------------------------|

| | | |
|------------------------------------------------------------------|
|------------------------------------------------------------------|
|-3-------2-------0------------------------------------------------|
|-------------------------3-------------------------------3--------|

| | | |
|------------------------------------------------------------------|
|-0-------------------------------0--------------------------------|
|---------------------0---2----------------------------------------|
|-----------------2------------------------------------------------|

| | | |
|------------------------------------------------------------------|
|------------------------------------------------------------------|
|-3-------2-------0------------------------------------------------|
|-------------------------3----------------------------------------|

| | | |
|------------------------------------------------------------------|
|-0-------0-------0-------0-------------------------------0--------|
|-------------------------------------------------0----------------|
|-----------------------------------------2------------------------|

| | | |
|------------------------------------------------------------------|
|------------------------------------------------------------------|
|-3-------2-------0------------------------------------------------|
|-------------------------3-------------------------------3--------|

| | | |
|------------------------------------------------------------------|
|-0-------------------------------0--------------------------------|
|-------------------------0---2------------------------------------|
|------------------------------------------------------------------|

| | | |
|------------------------------------------------------------------|
|------------------------------------------------------------------|
|-0----------------------------------------------------------------|
|-------------------------3-------3--------------------------------|

| | | |
|------------------------------------------------------------------|
|-0---------------0---------------0--------------------------------|
|------------------------------------------------------------------|
|------------------------------------------------------------------|

| | | |
|------------------------------------------------------------------|
|------------------------------------------------------------------|
|-3-----------------------2-------------------------------0--------|
|------------------------------------------------------------------|

| | | |
|------------------------------------------------------------------|
|-0-------0-----------------------0-------0-------0-------0--------|
|-----------------0-------2----------------------------------------|
|------------------------------------------------------------------|

| | | |
|------------------------------------------------------------------|
|------------------------------------------------------------------|
|-3-------2-------0------------------------------------------------|
|-------------------------3-------3-------3-------3-------3--------|

| | | |
|------------------------------------------------------------------|
|-0-------0-------0-------0-------0-------0-------0-------0--------|
|------------------------------------------------------------------|
|------------------------------------------------------------------|

| | | |
|------------------------------------------------------------------|
|-0-------2-------3------------------------------------------------|
|-------------------------3-------------------------------3--------|
|------------------------------------------------------------------|

| | | |
|------------------------------------------------------------------|
|------------------------------------------------------------------|
|------------------------------------------------------------------|
|-3-----------------------3-------3--------------------------------|

| | | |
|------------------------------------------------------------------|
|-0-------2-------3------------------------------------------------|
|-------------------------3-------------------------------3--------|
|------------------------------------------------------------------|

| | | |
|------------------------------------------------------------------|
|-----------------------------------------3-------3----------------|
|------------------------------------------------------------------|
|-3-------------------3-----------3--------------------------------|

| | | |
|------------------------------------------------------------------|
|-0----------------------------------------------------------------|
|-------------------------3----------------------------------------|
|---------------------------------------------------------3--------|

| | | |
|------------------------------------------------------------------|
|------------------------------------------------------------------|
|------------------------------------------------------------------|
|-3-----------------------3-------3--------------------------------|

| | | |
|------------------------------------------------------------------|
|-0----------------------------------------------------------------|
|-------------------------3-------3--------------------------------|
|---------------------------------------------------------3--------|

| | | |
|---------------------------------0--------------------------------|
|-------------------------0---------------3-------0----------------|
|---------0-------2---------------------------------------3--------|
|-3----------------------------------------------------------------|

| | | |
|------------------------------------------------------------------|
|-0----------------------------------------------------------------|
|-------------------------3-------3--------------------------------|
|---------------------------------------------------------3--------|

| | | |
|------------------------------------------------------------------|
|------------------------------------------------------------------|
|-------------------------------------------------0-------3--------|
|-3-------3---------------3---------------3------------------------|

| | | |
|------------------------------------------------------------------|
|-0----------------------------------------------------------------|
|-------------------------3----------------------------------------|
|---------------------------------------------------------3--------|

| | | |
|------------------------------------------------------------------|
|-------------------------------------3----------------------------|
|-----------------------------------------2-------3-------4--------|
|-3-----------------------3----------------------------------------|

| | | |
|------------------------------------------------------------------|
|-0----------------------------------------------------------------|
|-------------------------3-------3--------------------------------|
|---------------------------------------------------------3--------|

| | | |
|------------------------------------------------------------------|
|-------------------------------------------------------------0----|
|-----------------------------------------2-------3-------4--------|
|-3-----------------------3-------3--------------------------------|

| | | |
|------------------------------------------------------------------|
|-0---------------0-------0----------------------------------------|
|---------------------------------3-------3-------3----------------|
|------------------------------------------------------------------|

| | | |
|------------------------------------------------------------------|
|------------------------------------------------------------------|
|-----------------------------------------2-------3-------4--------|
|-3-------3-------3-------3-------3--------------------------------|

| | | |
|------------------------------------------------------------------|
|-0---------------0------------------------------------------------|
|-------------------------3-----------------------3----------------|
|---------------------------------------------------------3--------|

| | | |
|-------------------------------------4---2------------------------|
|---------------------------------------------3--------------------|
|-------------------------------------------------5---3---2--------|
|-----------------3---------------3---------------------------3----|

| | | |
|------------------------------------------------------------------|
|-0---------------0------------------------------------------------|
|-------------------------3-------------------------------3--------|
|------------------------------------------------------------------|

| | | |
|------------------------------------------------------------------|
|------------------------------------------------------------------|
|-------------------------------------2---2-------3-------4--------|
|-3-----------------------3----------------------------------------|

| | | |
|------------------------------------------------------------------|
|-0---------------0------------------------------------------------|
|-------------------------3-----------------------3----------------|
|---------------------------------------------------------3--------|

| | | |
|------------------------------------------------------------------|
|------------------------------------------------------------------|
|------------------------------------------------------------------|
|---------3-------3-------3-------3-------3-------3-------1--------|

| | | |
|------------------------------------------------------------------|
|-0-------0-------0-------0-----------------------0----------------|
|---------------------------------3-------3-------3-------3--------|
|------------------------------------------------------------------|

| | | |
|------------------------------------------------------------------|
|---------------------------------------------------------0--------|
|-------------------------------------------------0---3------------|
|-3-------3-------3-------3-------3-------3------------------------|




Created with TablEdit http://www.tabledit.com/

Copyrights
Auteur: ?
Componist: ?
Uitgever: ?
Meer details
Taal: Engels

Reacties

CommonCrawl [Bot]

Volg Muzikum