Eric Clapton

Eric Clapton
The Shape Youre In (Bass tab)

Date: Thu, 28 Mar 2002 15:09:57 +0200
From: "Jan Bjorklund"
Subject: c/clapton_eric/the_shape_youre_in.btab

eric clapton_the-shape-youre-in

TablEdited by Jan Bjorklund, Finland
You are welcome to request for tabs!
Fingering and positions as suggested by TablEdit, please use common sense!


TablEdited by Jan Bjorklund
Tuning : E A D G Time Signature: 12/8

| | | |
|--------------------------------------------------|
|--------------------------------------------------|
|-------------2-----------0-----------0------------|
|-0-------------------------------3----------------|

| | | |
||--------11--12------13---------------------------|
|*-------------------------------------------------|
|*-------------------------------------------------|
||0-------------------------------0---0------------|

>3| | | |
|-------------------------------------------------||
|-------------------------------------------------*|
|-------------------------0-----------0-----------*|
|-0-----------3-----------------------------------||

| | | |
|---------11--12------13---------------------------|
|--------------------------------------------------|
|--------------------------------------------------|
|-0-------------------------------0---0------------|

| | | |
|--------------------------------------------------|
|--------------------------------------------------|
|-------------------------0------------------------|
|-0-------------------3-----------------------3----|

| | | |
||-------------------------------------------------|
|*------------------------------------2------------|
|*-------------------------------------------------|
||0-------0-----------0-----------0----------------|

| | | |
||------------------------------------------------||
|*2-----------------------------------------------*|
|*------------------------0-----------------------*|
||--------------------3---------------3-------0---||

>6| | | |
|-------------------------------------------------||
|-------------------------------------------------*|
|-------------------------------------------------*|
|-0-------0-----------0-----------0---------------||

| | | |
||--------------------9----------------------------|
|*2-----------------------------------2------------|
|*-------------------------------------------------|
||-------------------------------------------------|

| | | |
|---------------------5----------------------------|
|--------------------------------------------------|
|-3-----------------------------------3------------|
|--------------------------------------------------|

| | | |
|---------------------2----------------------------|
|--------------------------------------------------|
|-0-----------------------------------0------------|
|--------------------------------------------------|

| | | |
|---------------------4---------------------------||
|-------------------------------------------------*|
|-2-----------------------------------2-----------*|
|-------------------------------------------------||

| | | |
|--------------------------------------------------|
|-2-----------------------2-----------2------------|
|--------------------------------------------------|
|--------------------------------------------------|

| | | |
||--------0-----------2----------------------------|
|*-------------------------------------------------|
|*-------------------------------------------------|
||-------------------------------------------------|

>3| | | |
|-2-------2---2-------2---2-----------------------||
|-------------------------------------------------||
|-------------------------------------------------||
|-------------------------------------------------||

>1| | | |
|-4-------------------4----------------------------|
|--------------------------------------------------|
|--------------------------------------------------|
|--------------------------------------------------|

| | | |
|-------------------------------------------------||
|-2-------------------2---------------2-----------*|
|-------------------------------------------------*|
|-------------------------------------------------||

>2| | | |
|-7-------------------4----------------------------|
|--------------------------------------------------|
|--------------------------------------------------|
|--------------------------------------------------|

| | | |
|--------------------------------------------------|
|-2------------------------------------------------|
|---------------------4---2-------------------2----|
|--------------------------------------------------|

| | | |
|--------------------------------------------------|
|-------------------------------------2------------|
|--------------------------------------------------|
|-0-------0-----------0-----------0----------------|

| | | |
|-7-------------------4----------------------------|
|--------------------------------------------------|
|--------------------------------------------------|
|--------------------------------------------------|

| | | |
|--------------------------------------------------|
|-0-------0----------------------------------------|
|---------------------2----------------------------|
|--------------------------------------------------|

| | | |
|--------------------------------------------------|
|-2------------------------------------------------|
|--------------------------------------------------|
|--------------------------------------------------|

| | | |
|--------------------------------------------------|
|--------------------------------------------------|
|--------------------------------------------------|
|--------------------------------------------------|

| | | |
|--------------------------------------------------|
|--------------------------------------------------|
|--------------------------------------------------|
|--------------------------------------------------|

| | | |
|---------11--12------13---------------------------|
|--------------------------------------------------|
|--------------------------------------------------|
|---------------------------------0---0------------|

| | | |
|--------------------------------------------------|
|-2-------------------2----------------------------|
|--------------------------------------------------|
|--------------------------------------------------|

| | | |
|--------------------------------------------------|
|-2-----------------------2------------------------|
|--------------------------------------------------|
|--------------------------------------------------|

| | | |
|-7-------------------4----------------------------|
|--------------------------------------------------|
|--------------------------------------------------|
|--------------------------------------------------|

| | | |
|-7-------------------4----------------------------|
|--------------------------------------------------|
|--------------------------------------------------|
|--------------------------------------------------|

| | | |
|--------------------------------------------------|
|--------------------------------------------------|
|-------------------------0------------------------|
|-0-------------------3-----------------------3----|

| | | |
|--------------------------------------------------|
|--------------------------------------------------|
|--------------------------------------------------|
|-0-------0-----------0-----------0----------------|

| | | |
|--------------------------------------------------|
|-2------------------------------------------------|
|-------------------------0------------------------|
|---------------------3---------------3-------0----|

| | | |
|--------------------------------------------------|
|--------------------------------------------------|
|--------------------------------------------------|
|-0-------0-----------0-----------0----------------|

| | | |
|--------------------------------------------------|
|--------------------------------------------------|
|-------------------------0------------------------|
|-0-------------------3-----------------------3----|

| | | |
|--------------------------------------------------|
|--------------------------------------------------|
|--------------------------------------------------|
|-0-------0-----------0-----------0----------------|

| | | |
|--------------------------------------------------|
|-2------------------------------------------------|
|-------------------------0------------------------|
|---------------------3---------------3-------0----|

| | | |
|--------------------------------------------------|
|--------------------------------------------------|
|--------------------------------------------------|
|-0-------0-----------0-----------0----------------|



Created with TablEdit http://www.tabledit.com/

OptimusPrime

Toegevoegd door OptimusPrime op zo 26 mei, 2002 6:46 pm

Auteur: ?
Componist: ?
Uitgever: ?
Taal: Engels

Reacties

CommonCrawl [Bot]

Volg Muzikum