Eric Clapton

Eric Clapton
Tears In Heaven (Bass Tab)

Date: Thu, 28 Mar 2002 15:09:08 +0200
From: "Jan Bjorklund"
Subject: c/clapton_eric/tears_in_heaven.btab

eric clapton_Tears in Heaven

TablEdited by Jan Bjorklund
You are welcome to request for tabs!
Fingering and positions as suggested by TablEdit, please use common sense.


TablEdited by Jan Bjorklund
Tuning : E A D G Time Signature: 4/4

| | | | | | | |
|--------------------------------|2---------------1---------------|
|----------------------------2-4-|----------------------------4---|
|--------------------------------|--------------------------------|
|--------------------------------|--------------------------------|

| | | | | | | |
|--------------------------------|--------------------------------|
|----4-----------2---2-------2---|4---4-------4---2---2---2-------|
|--------------------------------|--------------------------------|
|--------------------------------|--------------------------------|

| | | | | | | |
|2---2-------2-------2-----------|2---------------1---------------|
|----------------------------2-4-|----------------------------4---|
|--------------------------------|--------------------------------|
|--------------------------------|--------------------------------|

| | | | | | | |
|--------------------------------|--------------------------------|
|----4-------4---2---2-------2---|4---4-----------2---2-------2---|
|--------------------------------|--------------------------------|
|--------------------------------|--------------------------------|

| | | | | | | |
|--------------------------------|2---2-----------1---1-----------|
|2---2-------2-------2-------2---|----------------------------4---|
|--------------------------------|--------------------------------|
|--------------------------------|--------------------------------|

| | | | | | | |
|--------------------------------|--------------------------------|
|----4-------4---2---2-------2---|4---4-----------2---2-------2---|
|--------------------------------|--------------------------------|
|--------------------------------|--------------------------------|

| | | | | | | |
|--------------------------------|--------------------------------|
|2---2-------2-------2-------2---|4---------------4---4-------4---|
|--------------------------------|--------------------------------|
|--------------------------------|--------------------------------|

| | | | | | | |
|--------------------------------|--------------------------------|
|3-----------3-------3-------3---|2-----------2-------2-------2---|
|--------------------------------|--------------------------------|
|--------------------------------|--------------------------------|

| | | | | | | |
|----------------1-------3-------|4-----------4-------------------|
|4---4-------4-------------------|----------------------------2---|
|--------------------------------|--------------------------------|
|--------------------------------|--------------------------------|

| | | | | | | |
|--------------------------------|2---------------1---1-----------|
|----2---2---2---------------2-4-|----------------------------4---|
|--------------------------------|--------------------------------|
|--------------------------------|--------------------------------|

| | | | | | | |
|--------------------------------|--------------------------------|
|----4-----------2---------------|4---4-------4---2---------------|
|--------------------------------|--------------------------------|
|--------------------------------|--------------------------------|

| | | | | | | |
|2---2-------2---2---2-----------|2---------------1---------------|
|----------------------------2-4-|----------------------------4---|
|--------------------------------|--------------------------------|
|--------------------------------|--------------------------------|

| | | | | | | |
|--------------------------------|--------------------------------|
|----4-------4---2---2-------2---|4---4-----------2---2-------2---|
|--------------------------------|--------------------------------|
|--------------------------------|--------------------------------|

| | | | | | | |
|--------------------------------|2---2-----------1---1-----------|
|2---2-------2-------2-------2---|----------------------------4---|
|--------------------------------|--------------------------------|
|--------------------------------|--------------------------------|

| | | | | | | |
|--------------------------------|--------------------------------|
|----4-------4---2---2-------2---|4---4-----------2---2-------2---|
|--------------------------------|--------------------------------|
|--------------------------------|--------------------------------|

| | | | | | | |
|--------------------------------|--------------------------------|
|2---2-------2-------2-------2---|4---------------4---4-------4---|
|--------------------------------|--------------------------------|
|--------------------------------|--------------------------------|

| | | | | | | |
|--------------------------------|--------------------------------|
|3-----------3-------3-------3---|2-----------2-------2-------2---|
|--------------------------------|--------------------------------|
|--------------------------------|--------------------------------|

| | | | | | | |
|----------------1-------3-------|4-----------4-------------------|
|4---4-------4-------------------|----------------------------2---|
|--------------------------------|--------------------------------|
|--------------------------------|--------------------------------|

| | | | | | | |
|--------------------------------|2---------------1---1-----------|
|----2---2---2---------------2-4-|----------------------------4---|
|--------------------------------|--------------------------------|
|--------------------------------|--------------------------------|

| | | | | | | |
|--------------------------------|--------------------------------|
|----4-----------2---------------|4---4-------4---2-------2-------|
|--------------------------------|--------------------------------|
|--------------------------------|--------------------------------|

| | | | | | | |
|2-----------2---2-----------2-4-|5---5-----------4---4-----------|
|--------------------------------|--------------------------------|
|--------------------------------|--------------------------------|
|--------------------------------|--------------------------------|

| | | | | | | |
|2---2-------2-------------------|0-----------0-------------------|
|----------------4---4-----------|----------------4---4-------4---|
|--------------------------------|--------------------------------|
|--------------------------------|--------------------------------|

| | | | | | | |
|0-----------------------0-------|5---5-------5---4---4-------4---|
|----2-------2---4---------------|--------------------------------|
|--------------------------------|--------------------------------|
|--------------------------------|--------------------------------|

| | | | | | | |
|2---2-------2-------------------|0---0-------0-------------------|
|----------------4---4-----------|----------------4---4-------4---|
|--------------------------------|--------------------------------|
|--------------------------------|--------------------------------|

| | | | | | | |
|--------------------------------|2---2---------------1-----------|
|2---2-------2-------2-------2-4-|----------------------------4---|
|--------------------------------|--------------------------------|
|--------------------------------|--------------------------------|

| | | | | | | |
|--------------------------------|--------------------------------|
|----4-------4---2---2-----------|4---4-------4---2---2-------2---|
|--------------------------------|--------------------------------|
|--------------------------------|--------------------------------|

| | | | | | | |
|--------------------------------|2---------------1---------------|
|2---2-------2-------2-------2-4-|----------------------------4---|
|--------------------------------|--------------------------------|
|--------------------------------|--------------------------------|

| | | | | | | |
|--------------------------------|--------------------------------|
|------------4---2---2-------2---|4---4-------4---2---2-------2---|
|--------------------------------|--------------------------------|
|--------------------------------|--------------------------------|

| | | | | | | |
|--------------------------------|--------------------------------|
|2-----------2---2-------2-------|4---4-------4-------4-------4---|
|--------------------------------|--------------------------------|
|--------------------------------|--------------------------------|

| | | | | | | |
|--------------------------------|--------------------------------|
|3---3-------3-------3-------3---|2---2-------2-------2-------2---|
|--------------------------------|--------------------------------|
|--------------------------------|--------------------------------|

| | | | | | | |
|----------------1-------3-------|4---4-------4-------4-----------|
|4---4-------4-------------------|----------------------------2---|
|--------------------------------|--------------------------------|
|--------------------------------|--------------------------------|

| | | | | | | |
|--------------------------------|2---------------1---1-----------|
|----2---2---2---------------2-4-|----------------------------4---|
|--------------------------------|--------------------------------|
|--------------------------------|--------------------------------|

| | | | | | | |
|--------------------------------|--------------------------------|
|4---4-------4---2---2-------2---|4---4-------4---2---2---2-------|
|--------------------------------|--------------------------------|
|--------------------------------|--------------------------------|

| | | | | | | |
|2---2-------2-------2-----------|2---------------1---------------|
|----------------------------2-4-|----------------------------4---|
|--------------------------------|--------------------------------|
|--------------------------------|--------------------------------|

| | | | | | | |
|--------------------------------|--------------------------------|
|----4-------4---2---2-------2---|4---4-----------2---2-------2---|
|--------------------------------|--------------------------------|
|--------------------------------|--------------------------------|

| | | | | | | |
|--------------------------------|2---2-----------1---1-----------|
|2---2-------2-------2-------2---|----------------------------4---|
|--------------------------------|--------------------------------|
|--------------------------------|--------------------------------|

| | | | | | | |
|--------------------------------|--------------------------------|
|----4-------4---2---2-------2---|4---4-----------2---2-------2---|
|--------------------------------|--------------------------------|
|--------------------------------|--------------------------------|

| | | | | | | |
|--------------------------------|--------------------------------|
|2---2-------2-------2-------2---|4---------------4---4-------4---|
|--------------------------------|--------------------------------|
|--------------------------------|--------------------------------|

| | | | | | | |
|--------------------------------|--------------------------------|
|3-----------3-------3-------3---|2-----------2-------2-------2---|
|--------------------------------|--------------------------------|
|--------------------------------|--------------------------------|

| | | | | | | |
|----------------1-------3-------|4-----------4-------------------|
|4---4-------4-------------------|----------------------------2---|
|--------------------------------|--------------------------------|
|--------------------------------|--------------------------------|

| | | | | | | |
|--------------------------------|2---------------1---1-----------|
|----2---2---2---------------2-4-|----------------------------4---|
|--------------------------------|--------------------------------|
|--------------------------------|--------------------------------|

| | | | | | | |
|--------------------------------|--------------------------------|
|----4-------4---2-------2---2---|4---4-------4---2-------2-------|
|--------------------------------|--------------------------------|
|--------------------------------|--------------------------------|

| | | |
|2-------------------------------|
|--------------------------------|
|--------------------------------|
|--------------------------------|


Created with TablEdit http://www.tabledit.com/

OptimusPrime

Toegevoegd door OptimusPrime op zo 26 mei, 2002 6:46 pm

Frank Potters

Laatst bijgewerkt door Frank Potters op zo 31 dec, 2017 5:20 pm

Auteur: ?
Componist: ?
Uitgever: ?
Taal: Engels
Beschikbaar op: Slowhand at 70 (2015)

Reacties

CommonCrawl [Bot]

Volg Muzikum