Eric Clapton

Eric Clapton
Tearing Us Apart (Bass tab)

Date: Thu, 28 Mar 2002 15:08:00 +0200
From: "Jan Bjorklund"
Subject: c/clapton_eric/tearing_us_apart.btab

eric clapton_tearing-us-apart

TablEdited by Jan Bjorklund, Finland
You are welcome to request for tabs!
Fingering and positions as suggested by TablEdit, please use common sense!


TablEdited by Jan Bjorklund
Tuning : E A D G Time Signature: 4/4

| | | |
||7-----------------------7-------7-------------2---------------5--|
|*-----------------------------------------------------------------|
|*-----------------------------------------------------------------|
||-----------------------------------------------------------------|

| | | |
|-------------------------5---------------------0------------------|
|------------------------------------------------------------------|
|------------------------------------------------------------------|
|------------------------------------------------------------------|

>4| | | |
|-7-----------------------7-------7-------------2-----------------||
|-----------------------------------------------------------------||
|-----------------------------------------------------------------||
|-----------------------------------------------------------------||

>1| | | |
|-5-----------------------5-----------------------0---------------||
|-----------------------------------------------------------------*|
|-----------------------------------------------------------------*|
|-----------------------------------------------------------------||

>2| | | |
||5-----------------------5---------------------0------------------|
|*-----------------------------------------------------------------|
|*-----------------------------------------------------------------|
||-----------------------------------------------------------------|

| | | |
||7-----------------------7-------7-------------2---------------5--|
|*-----------------------------------------------------------------|
|*-----------------------------------------------------------------|
||-----------------------------------------------------------------|

| | | |
|-------------------------5---------------------0-----------------||
|-----------------------------------------------------------------||
|-----------------------------------------------------------------||
|-----------------------------------------------------------------||

>1| | | |
|-7-----------------------7-------7---------------2----------------|
|------------------------------------------------------------------|
|------------------------------------------------------------------|
|------------------------------------------------------------------|

| | | |
|-5-----------------------5---------------------0-----------------||
|-----------------------------------------------------------------*|
|-----------------------------------------------------------------*|
|-----------------------------------------------------------------||

>2| | | |
|-0----------------------------------------------------------------|
|-----------------------3------------------------------------------|
|------------------------------------------------------------------|
|------------------------------------------------------------------|

| | | |
|------------------------------------------------------------------|
|---------------------------------------3--------------------------|
|------------------------------------------------------------------|
|------------------------------------------------------------------|

| | | |
|-0----------------------------------------------------------------|
|-------------------------3----------------------------------------|
|------------------------------------------------------------------|
|------------------------------------------------------------------|

| | | |
|-------------------------------------------------10----10---------|
|-----------------------3---------------3--------------------------|
|------------------------------------------------------------------|
|------------------------------------------------------------------|

| | | |
|-0----------------------------------------------------------------|
|-----------------------3------------------------------------------|
|------------------------------------------------------------------|
|------------------------------------------------------------------|

| | | |
|------------------------------------------------------------------|
|-------------------------3---------------3---------------------3--|
|------------------------------------------------------------------|
|------------------------------------------------------------------|

| | | |
|-----------------10------------------------------10---------------|
|-------------------------------3----------------------------------|
|------------------------------------------------------------------|
|------------------------------------------------------------------|

| | | |
|-2---------------14------14------2---------------14--------------||
|-----------------------------------------------------------------*|
|-----------------------------------------------------------------*|
|-----------------------------------------------------------------||

>2| | | |
|-7-----------------------7-------7-------------2------------------|
|------------------------------------------------------------------|
|------------------------------------------------------------------|
|------------------------------------------------------------------|

| | | |
|-7-----------------------7-------7-------------2------------------|
|------------------------------------------------------------------|
|------------------------------------------------------------------|
|------------------------------------------------------------------|

| | | |
|-7-----------------------7-------7-------------2------------------|
|------------------------------------------------------------------|
|------------------------------------------------------------------|
|------------------------------------------------------------------|

| | | |
|-------------------------5-----------------------0----------------|
|------------------------------------------------------------------|
|------------------------------------------------------------------|
|------------------------------------------------------------------|

| | | |
||7-----------------------7-------7-------------2------------------|
|*-----------------------------------------------------------------|
|*-----------------------------------------------------------------|
||-----------------------------------------------------------------|

| | | |
|-5-----------------------5---------------------0-----------------||
|-----------------------------------------------------------------*|
|-----------------------------------------------------------------*|
|-----------------------------------------------------------------||

| | | |
|-0----------------------------------------------------------------|
|-------------------------3----------------------------------------|
|------------------------------------------------------------------|
|------------------------------------------------------------------|

| | | |
|------------------------------------------------------------------|
|-----------------------------------------3------------------------|
|------------------------------------------------------------------|
|------------------------------------------------------------------|

| | | |
|-0----------------------------------------------------------------|
|-------------------------3----------------------------------------|
|------------------------------------------------------------------|
|------------------------------------------------------------------|

| | | |
|-------------------------------------------------10----10---------|
|-----------------------3---------------3--------------------------|
|------------------------------------------------------------------|
|------------------------------------------------------------------|

| | | |
|-0----------------------------------------------------------------|
|-------------------------3----------------------------------------|
|------------------------------------------------------------------|
|------------------------------------------------------------------|

| | | |
|-7-----------------------7-------7-------------2---------------5--|
|------------------------------------------------------------------|
|------------------------------------------------------------------|
|------------------------------------------------------------------|

| | | |
|-7-----------------------7-------7-------------2---------------5--|
|------------------------------------------------------------------|
|------------------------------------------------------------------|
|------------------------------------------------------------------|

| | | |
|-0----------------------------------------------------------------|
|-------------------------3----------------------------------------|
|------------------------------------------------------------------|
|------------------------------------------------------------------|

| | | |
|-------------------------------------------------10------10-------|
|-----------------------3---------------3--------------------------|
|------------------------------------------------------------------|
|------------------------------------------------------------------|

| | | |
|-0----------------------------------------------------------------|
|-----------------------3------------------------------------------|
|------------------------------------------------------------------|
|------------------------------------------------------------------|

| | | |
|------------------------------------------------------------------|
|-------------------------3---------------3------------------------|
|------------------------------------------------------------------|
|------------------------------------------------------------------|

| | | |
|-----------------10------------------------------10------------2--|
|-3-------------------------------3--------------------------------|
|------------------------------------------------------------------|
|------------------------------------------------------------------|

| | | |
|-----------------14------14------2---------------14---------------|
|------------------------------------------------------------------|
|------------------------------------------------------------------|
|------------------------------------------------------------------|

| | | |
|-7-----------------------7---------------7-------------2----------|
|------------------------------------------------------------------|
|------------------------------------------------------------------|
|------------------------------------------------------------------|

| | | |
|-5-----------------------5-------------5-------0-------2----------|
|------------------------------------------------------------------|
|------------------------------------------------------------------|
|------------------------------------------------------------------|

| | | |
|-7-----------------------7---------------7------------------------|
|------------------------------------------------------------------|
|------------------------------------------------------------------|
|------------------------------------------------------------------|

| | | |
|-5---------------5---------------0-------------2------------------|
|------------------------------------------------------------------|
|------------------------------------------------------------------|
|------------------------------------------------------------------|

| | | |
|-7-----------------------7---------------7-------------2----------|
|------------------------------------------------------------------|
|------------------------------------------------------------------|
|------------------------------------------------------------------|

| | | |
|-5-----------------------5-------------5-------0-------2-------7--|
|------------------------------------------------------------------|
|------------------------------------------------------------------|
|------------------------------------------------------------------|

| | | |
|-------------------------7---------------7------------------------|
|------------------------------------------------------------------|
|------------------------------------------------------------------|
|------------------------------------------------------------------|

| | | |
|-5---------------5---------------0-------------2------------------|
|------------------------------------------------------------------|
|------------------------------------------------------------------|
|------------------------------------------------------------------|

| | | |
|-7-----------------------7-------7-------------2------------------|
|------------------------------------------------------------------|
|------------------------------------------------------------------|
|------------------------------------------------------------------|

| | | |
|-7-----------------------7-------7-------------2---------------5--|
|------------------------------------------------------------------|
|------------------------------------------------------------------|
|------------------------------------------------------------------|

| | | |
|-7-----------------------7-------7-------------2---------------5--|
|------------------------------------------------------------------|
|------------------------------------------------------------------|
|------------------------------------------------------------------|

| | | |
|-7-----------------------7-------7-------------2---------------5--|
|------------------------------------------------------------------|
|------------------------------------------------------------------|
|------------------------------------------------------------------|

| | | |
||7-----------------------7---------------7-------------2-------5--|
|*-----------------------------------------------------------------|
|*-----------------------------------------------------------------|
||-----------------------------------------------------------------|

| | | |
|-------------------------5-------------5-------0-------2-------7--|
|------------------------------------------------------------------|
|------------------------------------------------------------------|
|------------------------------------------------------------------|

| | | |
|-------------------------7---------------7------------------------|
|------------------------------------------------------------------|
|------------------------------------------------------------------|
|------------------------------------------------------------------|

| | | |
|-5---------------5---------------0-------------2------------------|
|------------------------------------------------------------------|
|------------------------------------------------------------------|
|------------------------------------------------------------------|

| | | |
|-7----------------------------------------------------------------|
|------------------------------------------------------------------|
|------------------------------------------------------------------|
|------------------------------------------------------------------|


Created with TablEdit http://www.tabledit.com/

OptimusPrime

Toegevoegd door OptimusPrime op zo 26 mei, 2002 6:46 pm

Auteur: ?
Componist: ?
Uitgever: ?
Taal: Engels

Reacties

CommonCrawl [Bot]

Volg Muzikum