Eric Clapton
Phenomenon Change The World (Bass tab)

Date: Thu, 28 Mar 2002 15:04:09 +0200
From: "Jan Bjorklund"
Subject: c/clapton_eric/phenomenon_change_the_world.btab

eric clapton phenomenon_change_the_world

TablEdited by Jan Bjorklund, Finland
You are welcome to request for tabs!
Fingering and positions as suggested by TablEdit, please use common sense!


TablEdited by Jan Bjorklund
Tuning : E A D G Time Signature: 4/4

| | | |
|------------------------------------------------------------------|
|---3-----3---------------3----------------------------------------|
|-3-------------------------------------------------------3--------|
|------------------------------------------------------------------|

| | | |
|------------------------------------------------------------------|
|-3-------3---------------3----------------------------------------|
|---------------------------------------------------------3--------|
|------------------------------------------------------------------|

| | | |
|------------------------------------------------------------------|
|-3-----3-----------------3-------------------------------------3--|
|---------------------------------------------------------3--------|
|------------------------------------------------------------------|

| | | |
|------------------------------------------------------------------|
|-------3-----------------3----------------------------------------|
|---------------------------------------------------------3--------|
|------------------------------------------------------------------|

| | | |
|------------------------------------------------------------------|
|-3-----3---------------3---------------------------------------3--|
|-------------------------------------------------------3----------|
|------------------------------------------------------------------|

| | | |
|------------------------------------------------------------------|
|-------3-----------------3----------------------------------------|
|------------------------------------------------------------------|
|------------------------------------------------------------------|

| | | |
|------------------------------------------------------------------|
|------------------------------------------------------------------|
|-3----------------------------------------------------------------|
|------------------------------------------------------------------|

| | | |
|------------------------------------------------------------------|
|------------------------------------------------------------------|
|------------------------------------------------------------------|
|------------------------------------------------------------------|

| | | |
||-----------------------------------------------------------------|
|*3-----------------------3-------3--------------------------------|
|*-----------------------------------------------------------------|
||-----------------------------------------------------------------|

| | | |
|-----------------------------------------------------------------||
|-3-----------------------3-------3-------------------------------*|
|-----------------------------------------------------------------*|
|-----------------------------------------------------------------||

| | | |
|------------------------------------------------------------------|
|-3-----------------------3-------3--------------------------------|
|------------------------------------------------------------------|
|------------------------------------------------------------------|

| | | |
|------------------------------------------------------------------|
|-3-----------------------3-------3--------------------------------|
|------------------------------------------------------------------|
|------------------------------------------------------------------|

| | | |
|------------------------------------------------------------------|
|-3-----------------------3-------3-----------------------3--------|
|------------------------------------------------------------------|
|------------------------------------------------------------------|

| | | |
|------------------------------------------------------------------|
|-3-----------------------3-------3--------------------------------|
|------------------------------------------------------------------|
|------------------------------------------------------------------|

| | | |
||-----------------------------------------------------------------|
|*-----------------------------------------------------------------|
|*1-----------------------1-------1--------------------------------|
||-----------------------------------------------------------------|

| | | |
|-----------------------------------------------------------------||
|-----------------------------------------------------------------*|
|-1-----------------------1-------1-------------------------------*|
|-----------------------------------------------------------------||

| | | |
|------------------------------------------------------------------|
|-3-----------------------3-------3--------------------------------|
|------------------------------------------------------------------|
|------------------------------------------------------------------|

| | | |
|------------------------------------------------------------------|
|-3-----------------------3-------3--------------------------------|
|------------------------------------------------------------------|
|------------------------------------------------------------------|

| | | |
|------------------------------------------------------------------|
|-3-----------------------3-------3--------------------------------|
|------------------------------------------------------------------|
|------------------------------------------------------------------|

| | | |
|------------------------------------------------------------------|
|------------------------------------------------------------------|
|-0-----------------------0-------0--------------------------------|
|------------------------------------------------------------------|

| | | |
|------------------------------------------------------------------|
|------------------------------------------------------------------|
|-1-----------------------1-------4-----------------------4--------|
|------------------------------------------------------------------|

| | | |
|------------------------------------------------------------------|
|-0-----------------------0-------0-----------------------0--------|
|------------------------------------------------------------------|
|------------------------------------------------------------------|

| | | |
|------------------------------------------------------------------|
|-2-----------------------2----------------------------------------|
|---------------------------------4-----------------------4--------|
|------------------------------------------------------------------|

| | | |
|------------------------------------------------------------------|
|-0-----------------------0-------0-----------------------0--------|
|------------------------------------------------------------------|
|------------------------------------------------------------------|

| | | |
|------------------------------------------------------------------|
|-2-----------------------2----------------------------------------|
|---------------------------------4-----------------------4--------|
|------------------------------------------------------------------|

| | | |
|------------------------------------------------------------------|
|-0-----------------------0----------------------------------------|
|---------------------------------4-----------------------4--------|
|------------------------------------------------------------------|

| | | |
|------------------------------------------------------------------|
|------------------------------------------------------------------|
|-1-----------------------1-------0-----------------------0--------|
|------------------------------------------------------------------|

| | | |
|-1-----------------------1----------------------------------------|
|------------------------------------------------------------------|
|---------------------------------3-----------------------3--------|
|------------------------------------------------------------------|

| | | |
|------------------------------------------------------------------|
|-3-----------------------3-------3-----------------------3--------|
|------------------------------------------------------------------|
|------------------------------------------------------------------|

| | | |
|------------------------------------------------------------------|
|-3-----------------------3-------3-----------------------3--------|
|------------------------------------------------------------------|
|------------------------------------------------------------------|

| | | |
|------------------------------------------------------------------|
|-3-----------------------3-------3-----------------------3--------|
|------------------------------------------------------------------|
|------------------------------------------------------------------|

| | | |
|------------------------------------------------------------------|
|-3-----------------------3-------3---------------3-------3--------|
|------------------------------------------------------------------|
|------------------------------------------------------------------|

| | | |
|------------------------------------------------------------------|
|-3-----------------------3-------3-----------------------3--------|
|------------------------------------------------------------------|
|------------------------------------------------------------------|

| | | |
|------------------------------------------------------------------|
|-3-----------------------3-------3---------------3-------3--------|
|------------------------------------------------------------------|
|------------------------------------------------------------------|

| | | |
|------------------------------------------------------------------|
|-3-----------------------3-------3-----------------------3--------|
|------------------------------------------------------------------|
|------------------------------------------------------------------|

| | | |
|------------------------------------------------------------------|
|-3-----------------------3----------------------------------------|
|---------------------------------3-----------------------3--------|
|------------------------------------------------------------------|

| | | |
|------------------------------------------------------------------|
|-3-----------------------3-------3-----------------------3--------|
|------------------------------------------------------------------|
|------------------------------------------------------------------|

| | | |
|------------------------------------------------------------------|
|-3-----------------------3-------3-----------------------3--------|
|------------------------------------------------------------------|
|------------------------------------------------------------------|

| | | |
|------------------------------------------------------------------|
|-3-----------------------3-------3-----------------------3--------|
|------------------------------------------------------------------|
|------------------------------------------------------------------|

| | | |
|------------------------------------------------------------------|
|-3-----------------------3----------------------------------------|
|---------------------------------3-----------------------3--------|
|------------------------------------------------------------------|

| | | |
|------------------------------------------------------------------|
|------------------------------------------------------------------|
|-1-----------------------1-------1-----------------------1--------|
|------------------------------------------------------------------|

| | | |
|------------------------------------------------------------------|
|------------------------------------------------------------------|
|-1-----------------------1-------1-----------------------1--------|
|------------------------------------------------------------------|

| | | |
|------------------------------------------------------------------|
|------------------------------------------------------------------|
|-1-----------------------1-------1-----------------------1--------|
|------------------------------------------------------------------|

| | | |
|------------------------------------------------------------------|
|------------------------------------------------------------------|
|-1-----------------------1-------1-----------------------1--------|
|------------------------------------------------------------------|

| | | |
|------------------------------------------------------------------|
|-3-----------------------3-------3-----------------------3--------|
|------------------------------------------------------------------|
|------------------------------------------------------------------|

| | | |
|------------------------------------------------------------------|
|-3-----------------------3-------3---------------3-------3--------|
|------------------------------------------------------------------|
|------------------------------------------------------------------|

| | | |
|------------------------------------------------------------------|
|-3-----------------------3-------3-----------------------3--------|
|------------------------------------------------------------------|
|------------------------------------------------------------------|

| | | |
|------------------------------------------------------------------|
|---------------------------------2-----------------------2--------|
|-0-----------------------0----------------------------------------|
|------------------------------------------------------------------|

| | | |
|------------------------------------------------------------------|
|------------------------------------------------------------------|
|-1-----------------------1-------4-----------------------4--------|
|------------------------------------------------------------------|

| | | |
|------------------------------------------------------------------|
|-0-----------------------0-------0-----------------------0--------|
|------------------------------------------------------------------|
|------------------------------------------------------------------|

| | | |
|------------------------------------------------------------------|
|-2-----------------------2----------------------------------------|
|---------------------------------4-----------------------4--------|
|------------------------------------------------------------------|

| | | |
|------------------------------------------------------------------|
|-0-----------------------0-------0---------------0-------0--------|
|------------------------------------------------------------------|
|------------------------------------------------------------------|

| | | |
|------------------------------------------------------------------|
|-2-----------------------2----------------------------------------|
|---------------------------------4-----------------------4--------|
|------------------------------------------------------------------|

| | | |
|------------------------------------------------------------------|
|-0-----------------------0----------------------------------------|
|---------------------------------4-----------------------4--------|
|------------------------------------------------------------------|

| | | |
|------------------------------------------------------------------|
|------------------------------------------------------------------|
|-1-----------------------1-------0-----------------------0--------|
|------------------------------------------------------------------|

| | | |
|-1-----------------------1----------------------------------------|
|------------------------------------------------------------------|
|---------------------------------3-----------------------3--------|
|------------------------------------------------------------------|

| | | |
||-----------------------------------------------------------------|
|*3-----------------------3-------3-----------------------3--------|
|*-----------------------------------------------------------------|
||-----------------------------------------------------------------|

| | | |
|------------------------------------------------------------------|
|------------------------------------------------------------------|
|-1-----------------------1-------0-----------------------0--------|
|------------------------------------------------------------------|

| | | |
|-1-----------------------1----------------------------------------|
|------------------------------------------------------------------|
|---------------------------------3-----------------------3--------|
|------------------------------------------------------------------|

| | | |
|------------------------------------------------------------------|
|-3-----------------------3----------------------------------------|
|---------------------------------3-----------------------3--------|
|------------------------------------------------------------------|

| | | |
|------------------------------------------------------------------|
|------------------------------------------------------------------|
|-1-----------------------1-------1-----------------------1--------|
|------------------------------------------------------------------|

| | | |
|------------------------------------------------------------------|
|------------------------------------------------------------------|
|-1-----------------------1-------1---------------1-------1--------|
|------------------------------------------------------------------|

| | | |
|------------------------------------------------------------------|
|------------------------------------------------------------------|
|-1-----------------------1-------1-----------------------1--------|
|------------------------------------------------------------------|

| | | |
|------------------------------------------------------------------|
|------------------------------------------------------------------|
|-1-----------------------1-------1---------------1-------1--------|
|------------------------------------------------------------------|

| | | |
|------------------------------------------------------------------|
|-3-----------------------3-------3-----------------------3--------|
|------------------------------------------------------------------|
|------------------------------------------------------------------|

| | | |
|------------------------------------------------------------------|
|-3-----------------------3-------3-----------------------3--------|
|------------------------------------------------------------------|
|------------------------------------------------------------------|

| | | |
|------------------------------------------------------------------|
|-3-----------------------3-------3-----------------------3--------|
|------------------------------------------------------------------|
|------------------------------------------------------------------|

| | | |
|------------------------------------------------------------------|
|------------------------------------------------------------------|
|-0-----------------------0-------0-----------------------0--------|
|------------------------------------------------------------------|

| | | |
|------------------------------------------------------------------|
|------------------------------------------------------------------|
|-1-----------------------1-------4-----------------------4--------|
|------------------------------------------------------------------|

| | | |
|---------------------------------2-----------------------2--------|
|-0-----------------------0----------------------------------------|
|------------------------------------------------------------------|
|------------------------------------------------------------------|

| | | |
|------------------------------------------------------------------|
|-2-----------------------2----------------------------------------|
|---------------------------------4-----------------------4--------|
|------------------------------------------------------------------|

| | | |
|------------------------------------------------------------------|
|-0-----------------------0-------0---------------0-------0--------|
|------------------------------------------------------------------|
|------------------------------------------------------------------|

| | | |
|------------------------------------------------------------------|
|-2-----------------------2----------------------------------------|
|---------------------------------4-----------------------4--------|
|------------------------------------------------------------------|

| | | |
|------------------------------------------------------------------|
|-0-----------------------0----------------------------------------|
|---------------------------------4-----------------------4--------|
|------------------------------------------------------------------|

| | | |
|------------------------------------------------------------------|
|------------------------------------------------------------------|
|-1-----------------------1-------0-----------------------0--------|
|------------------------------------------------------------------|

| | | |
|-1-----------------------1---------------------------------------||
|-----------------------------------------------------------------*|
|---------------------------------3-----------------------3-------*|
|-----------------------------------------------------------------||


Created with TablEdit http://www.tabledit.com/

Copyrights
Auteur: ?
Componist: ?
Uitgever: ?
Meer details
Taal: Engels

Reacties

CommonCrawl [Bot]

Volg Muzikum