Eric Clapton
Nobody Knows You (Bass tab)

Date: Thu, 28 Mar 2002 15:02:45 +0200
From: "Jan Bjorklund"
Subject: c/clapton_eric/nobody_knows_you.btab

eric clapton_nobody knows you when you're down and out

TablEdited by Jan Bjorklund
You are welcome to request for tabs!
Fingering and positions as suggested by TablEdit, please use common sense.


TablEdited by Jan Bjorklund
Tuning : E A D G Time Signature: 4/4

| | | |
|----------------3-------------------------------4---------------|
|----------------------------------------------------------------|
|1-------------------------1-----2-------------------------------|
|----------------------------------------------------------1-----|

| | | |
|----------------10------------------------------7---------------|
|3-------------------------3-----0-------------------------0-----|
|----------------------------------------------------------------|
|----------------------------------------------------------------|

| | | |
|0-------------------------0---------------------5---------------|
|----------------------------------------------------------------|
|--------------------------------3-------------------------------|
|----------------------------------------------------------3-----|

| | | |
|----------------10------------------------------5---------------|
|3-------------------------3-------------------------------------|
|--------------------------------3-------------------------3-----|
|----------------------------------------------------------------|

| | | |
|----------------10------------------------------2---------------|
|3---------------------------------------------------------------|
|--------------------------3-----0-------------------------0-----|
|----------------------------------------------------------------|

| | | |
|----------------7---------------2-------------------------2-----|
|0-------------------------4---------------------4---------------|
|----------------------------------------------------------------|
|----------------------------------------------------------------|

| | | |
|0-------------------------0---------------------7---------------|
|--------------------------------0-------------------------------|
|----------------------------------------------------------0-----|
|----------------------------------------------------------------|

| | | |
|0---------------12--------3-----7---------------3---------7-----|
|----------------------------------------------------------------|
|----------------------------------------------------------------|
|----------------------------------------------------------------|

| | | |
|----------------3-------------------------------4---------------|
|----------------------------------------------------------------|
|1-------------------------1-----2-------------------------2-----|
|----------------------------------------------------------------|

| | | |
|----------------10----------------------------------------------|
|3-------------------------------0-------------------------0-----|
|--------------------------3-------------------------------------|
|----------------------------------------------------------------|

| | | |
|0---------------12--------4-----7---------------4---------7-----|
|----------------------------------------------------------------|
|----------------------------------------------------------------|
|----------------------------------------------------------------|

| | | |
|----------------5---------------0-------------------------0-----|
|--------------------------2---------------------2---------------|
|3---------------------------------------------------------------|
|----------------------------------------------------------------|

| | | |
|----------------10----------------------------------------------|
|3-------------------------3-------------------------------------|
|--------------------------------0-------------------------0-----|
|----------------------------------------------------------------|

| | | |
|----------------7---------------2-------------------------2-----|
|0-------------------------4---------------------4---------------|
|----------------------------------------------------------------|
|----------------------------------------------------------------|

| | | |
|0---------------12------------------------------7---------------|
|--------------------------0-----0-------------------------------|
|----------------------------------------------------------0-----|
|----------------------------------------------------------------|

| | | |
|0---------------12--------3-----7---------------3---------7-----|
|----------------------------------------------------------------|
|----------------------------------------------------------------|
|----------------------------------------------------------------|

| | | |
|----------------3-------------------------------4---------------|
|----------------------------------------------------------------|
|1-------------------------------2-------------------------2-----|
|--------------------------1-------------------------------------|

| | | |
|----------------10----------------------------------------------|
|3-------------------------3-----0-------------------------0-----|
|----------------------------------------------------------------|
|----------------------------------------------------------------|

| | | |
|0---------------12--------4-----7---------------4---------7-----|
|----------------------------------------------------------------|
|----------------------------------------------------------------|
|----------------------------------------------------------------|

| | | |
|0---------------12--------0---------------------5---------------|
|----------------------------------------------------------------|
|--------------------------------3-------------------------------|
|----------------------------------------------------------3-----|

| | | |
|----------------10----------------------------------------------|
|3---------------------------------------------------------------|
|--------------------------3-----0-------------------------0-----|
|----------------------------------------------------------------|

| | | |
|----------------7---------------2-------------------------2-----|
|0-------------------------4---------------------4---------------|
|----------------------------------------------------------------|
|----------------------------------------------------------------|

| | | |
|0---------------12--------0---------------------7---------------|
|--------------------------------0-------------------------0-----|
|----------------------------------------------------------------|
|----------------------------------------------------------------|

| | | |
|0---------------12--------3-----7---------------3---------7-----|
|----------------------------------------------------------------|
|----------------------------------------------------------------|
|----------------------------------------------------------------|

| | | |
|------------------------------------------------4---------------|
|----------------------------------------------------------------|
|1-------------------------1-----2-------------------------------|
|----------------------------------------------------------1-----|

| | | |
|------------------------------------------------7---------------|
|3-------------------------3-----0-------------------------------|
|----------------------------------------------------------0-----|
|----------------------------------------------------------------|

| | | |
|0---------------12--------4-----7---------------4---------7-----|
|----------------------------------------------------------------|
|----------------------------------------------------------------|
|----------------------------------------------------------------|

| | | |
|0---------------12----------------------------------------------|
|--------------------------0-------------------------------------|
|--------------------------------3-------------------------3-----|
|----------------------------------------------------------------|

| | | |
|----------------10----------------------------------------------|
|3---------------------------------------------------------------|
|--------------------------3-----0-------------------------0-----|
|----------------------------------------------------------------|

| | | |
|----------------7---------------2-------------------------2-----|
|0-------------------------4---------------------4---------------|
|----------------------------------------------------------------|
|----------------------------------------------------------------|

| | | |
|0-------------------------0---------------------7---------------|
|--------------------------------0-------------------------------|
|----------------------------------------------------------0-----|
|----------------------------------------------------------------|

| | | |
|0---------------12--------3-----7---------------3---------7-----|
|----------------------------------------------------------------|
|----------------------------------------------------------------|
|----------------------------------------------------------------|

| | | |
|----------------3-------------------------------4---------------|
|----------------------------------------------------------------|
|1-------------------------1-----2-------------------------2-----|
|----------------------------------------------------------------|

| | | |
|----------------10------------------------------7---------------|
|3-------------------------------0-------------------------0-----|
|--------------------------3-------------------------------------|
|----------------------------------------------------------------|

| | | |
|0---------------12--------0---------------------5---------------|
|----------------------------------------------------------------|
|--------------------------------3-------------------------------|
|----------------------------------------------------------3-----|

| | | |
|------------------------------------------------5---------------|
|3-------------------------3-------------------------------------|
|--------------------------------3-------------------------3-----|
|----------------------------------------------------------------|

| | | |
|----------------10------------------------------2---------------|
|3---------------------------------------------------------------|
|--------------------------3-----0-------------------------------|
|----------------------------------------------------------0-----|

| | | |
|----------------7---------------2-------------------------2-----|
|0-------------------------4---------------------4---------------|
|----------------------------------------------------------------|
|----------------------------------------------------------------|

| | | |
|0---------------12------------------------------7---------------|
|--------------------------0-----0-------------------------------|
|----------------------------------------------------------0-----|
|----------------------------------------------------------------|

| | | |
|0---------------12--------3-----7---------------3---------7-----|
|----------------------------------------------------------------|
|----------------------------------------------------------------|
|----------------------------------------------------------------|

| | | |
|----------------3-------------------------------4---------------|
|----------------------------------------------------------------|
|1-------------------------------2-------------------------------|
|--------------------------1-------------------------------1-----|

| | | |
|----------------10------------------------------7---------------|
|3-------------------------------0-------------------------------|
|--------------------------3-------------------------------0-----|
|----------------------------------------------------------------|

| | | |
|0---------------12--------4-----7---------------4---------7-----|
|----------------------------------------------------------------|
|----------------------------------------------------------------|
|----------------------------------------------------------------|

| | | |
|----------------5---------------0-------------------------0-----|
|--------------------------2---------------------2---------------|
|3---------------------------------------------------------------|
|----------------------------------------------------------------|

| | | |
|----------------10------------------------------2---------------|
|3-------------------------3-------------------------------------|
|--------------------------------0-------------------------0-----|
|----------------------------------------------------------------|

| | | |
|----------------7---------------2-------------------------2-----|
|0-------------------------4---------------------4---------------|
|----------------------------------------------------------------|
|----------------------------------------------------------------|

| | | |
|0-------------------------0---------------------7---------------|
|--------------------------------0-------------------------0-----|
|----------------------------------------------------------------|
|----------------------------------------------------------------|

| | | |
|0---------------12--------3-----7---------------3---------7-----|
|----------------------------------------------------------------|
|----------------------------------------------------------------|
|----------------------------------------------------------------|

| | | |
|----------------------------------------------------------------|
|----------------------------------------------------------------|
|1-------------------------1-----2-------------------------2-----|
|----------------------------------------------------------------|

| | | |
|----------------10----------------------------------------------|
|3-------------------------3-----0-------------------------0-----|
|----------------------------------------------------------------|
|----------------------------------------------------------------|

| | | |
|0---------------12--------4-----7---------------4---------7-----|
|----------------------------------------------------------------|
|----------------------------------------------------------------|
|----------------------------------------------------------------|

| | | |
|0---------------12------------------------------5---------------|
|--------------------------0-------------------------------------|
|--------------------------------3-------------------------3-----|
|----------------------------------------------------------------|

| | | |
|----------------10------------------------------2---------------|
|3-------------------------3-------------------------------------|
|--------------------------------0-------------------------------|
|----------------------------------------------------------0-----|

| | | |
|----------------7---------------2-------------------------2-----|
|0-------------------------4---------------------4---------------|
|----------------------------------------------------------------|
|----------------------------------------------------------------|

| | | |
|0-------------------------0-------------------------------------|
|--------------------------------0-------------------------0-----|
|----------------------------------------------------------------|
|----------------------------------------------------------------|

| | | |
|0---------------12--------3-----7---------------3---------7-----|
|----------------------------------------------------------------|
|----------------------------------------------------------------|
|----------------------------------------------------------------|

| | | |
|----------------3-------------------------------4---------------|
|----------------------------------------------------------------|
|1-------------------------1-----2-------------------------2-----|
|----------------------------------------------------------------|

| | | |
|----------------10------------------------------7---------------|
|3-------------------------3-----0-------------------------0-----|
|----------------------------------------------------------------|
|----------------------------------------------------------------|

| | | |
|0---------------12--------4-----7---------------4---------7-----|
|----------------------------------------------------------------|
|----------------------------------------------------------------|
|----------------------------------------------------------------|

| | | |
|0---------------12--------0---------------------5---------------|
|----------------------------------------------------------------|
|--------------------------------3-------------------------------|
|----------------------------------------------------------3-----|

| | | |
|----------------10----------------------------------------------|
|3-------------------------3-------------------------------------|
|--------------------------------0-------------------------0-----|
|----------------------------------------------------------------|

| | | |
|----------------7---------------2-------------------------2-----|
|0-------------------------4---------------------4---------------|
|----------------------------------------------------------------|
|----------------------------------------------------------------|

| | | |
|0-------------------------0---------------------7---------------|
|--------------------------------0-------------------------------|
|----------------------------------------------------------0-----|
|----------------------------------------------------------------|

| | | |
|0---------------12--------3-----7---------------3---------7-----|
|----------------------------------------------------------------|
|----------------------------------------------------------------|
|----------------------------------------------------------------|

| | | |
|----------------3-------------------------------4---------------|
|----------------------------------------------------------------|
|1-------------------------1-----2-------------------------------|
|----------------------------------------------------------1-----|

| | | |
|----------------10----------------------------------------------|
|3-------------------------3-----0-------------------------0-----|
|----------------------------------------------------------------|
|----------------------------------------------------------------|

| | | |
|0---------------12--------4-----7---------------4-------7-------|
|----------------------------------------------------------------|
|----------------------------------------------------------------|
|----------------------------------------------------------------|

| | | |
|0---------------12--------4-----7---------------4---------7-----|
|----------------------------------------------------------------|
|----------------------------------------------------------------|
|----------------------------------------------------------------|

| | | |
|----------------4-----------------------------------------------|
|--------------------------0-----3---------------0-------3-------|
|2---------------------------------------------------------------|
|----------------------------------------------------------------|

| | | |
|----------------4-----------------------------------------------|
|--------------------------0-----3---------------0---------3-----|
|2---------------------------------------------------------------|
|----------------------------------------------------------------|

| | | |
|----------------10--------2-----5---------------2---------5-----|
|3---------------------------------------------------------------|
|----------------------------------------------------------------|
|----------------------------------------------------------------|

| | | |
|----------------7---------------2-------------------------2-----|
|0-------------------------4---------------------4---------------|
|----------------------------------------------------------------|
|----------------------------------------------------------------|

| | | |
|0---------------12--------3-----7---------------3---------7-----|
|----------------------------------------------------------------|
|----------------------------------------------------------------|
|----------------------------------------------------------------|

| | | |
|----------------5---------------0-------------------------0-----|
|--------------------------2---------------------2---------------|
|3---------------------------------------------------------------|
|----------------------------------------------------------------|

| | | |
|----------------10--------2-----5---------------2---------5-----|
|3---------------------------------------------------------------|
|----------------------------------------------------------------|
|----------------------------------------------------------------|

| | | |
|----------------7---------------2-------------------------2-----|
|0-------------------------4---------------------4---------------|
|----------------------------------------------------------------|
|----------------------------------------------------------------|

| | | |
|0---------------12--------4-----7---------------4-------7-------|
|----------------------------------------------------------------|
|----------------------------------------------------------------|
|----------------------------------------------------------------|

| | | |
|0---------------12--------4-----7---------------4---------7-----|
|----------------------------------------------------------------|
|----------------------------------------------------------------|
|----------------------------------------------------------------|

| | | |
|----------------4-----------------------------------------------|
|--------------------------0-----3---------------0-------3-------|
|2---------------------------------------------------------------|
|----------------------------------------------------------------|

| | | |
|----------------4-----------------------------------------------|
|--------------------------0-----3---------------0---------3-----|
|2---------------------------------------------------------------|
|----------------------------------------------------------------|

| | | |
|----------------10--------2-----5---------------2---------5-----|
|3---------------------------------------------------------------|
|----------------------------------------------------------------|
|----------------------------------------------------------------|

| | | |
|----------------7---------------2-------------------------2-----|
|0-------------------------4---------------------4---------------|
|----------------------------------------------------------------|
|----------------------------------------------------------------|

| | | |
|0---------------12--------3-----7---------------3---------7-----|
|----------------------------------------------------------------|
|----------------------------------------------------------------|
|----------------------------------------------------------------|

| | | |
|----------------5---------------0-------------------------0-----|
|--------------------------2---------------------2---------------|
|3---------------------------------------------------------------|
|----------------------------------------------------------------|

| | | |
|----------------10----------------------------------------------|
|3---------------------------------------------------------------|
|--------------------------3-----1-------------------------1-----|
|----------------------------------------------------------------|

| | | |
|----------------------------------------------------------------|
|3---------------------------------------------------------------|
|----------------------------------------------------------------|
|----------------------------------------------------------------|


Created with TablEdit http://www.tabledit.com/

Copyrights
Auteur: ?
Componist: ?
Uitgever: ?
Meer details
Taal: Engels

Reacties

CommonCrawl [Bot]

Volg Muzikum