Eric Clapton
My Fathers Eyes (Bass tab)

Date: Thu, 28 Mar 2002 15:01:13 +0200
From: "Jan Bjorklund"
Subject: c/clapton_eric/my_fathers_eyes.btab

eric clapton_my fathers eyes

TablEdited by Jan Bjorklund, Finland
You are welcome to request for tabs!
Fingering and positions as suggested by TablEdit, please use common sense!


TablEdited by Jan Bjorklund
Tuning : E A D G Time Signature: 4/4

| | | |
||-----------------------------------------------------------------|
|*------------------------------------------------2----------------|
|*--4-----------------------4-------4------------------------------|
||-----------------------------------------------------------------|

| | | |
|-2---------------------------------2---------------1--------------|
|------------------------------------------------------------------|
|------------------------------------------------------------------|
|------------------------------------------------------------------|

| | | |
|------------------------------------------------------------------|
|------------------------------------------------------------------|
|-------------------2-------4--------------------------------------|
|---2-------------------------------0-------------2----------------|

| | | |
|-4---------------------------------4------------------------------|
|------------------------------------------------------------------|
|------------------------------------------------------------------|
|------------------------------------------------------------------|

| | | |
|------------------------------------------------------------------|
|------------------------------------------------------------------|
|-------------------4-------2-----4--------------------------------|
|---0---------------------------------------------0----------------|

| | | |
|------------------------------------------------------------------|
|-----------------------------------------------------------1------|
|-0-------------------------------------------------0--------------|
|------------------------------------------------------------------|

| | | |
|------------------------------------------------------------------|
|------------------------------------------------------------------|
|-------------------------4----------------------------------------|
|-2-----------------2---------------0---------------2--------------|

| | | |
|------------------------------------------------------------------|
|------------------------------------------------------------------|
|-2-----------------------------------------------2----------------|
|-----------------------------------4------------------------------|

| | | |
|------------------------------------------------------------------|
|-------------------------------------------------2----------------|
|---4-------------4-----------4-----4------------------------------|
|------------------------------------------------------------------|

| | | |
|-2---------------------------------2---------------1--------------|
|------------------------------------------------------------------|
|------------------------------------------------------------------|
|------------------------------------------------------------------|

| | | |
|------------------------------------------------------------------|
|------------------------------------------------------------------|
|-------------------2-------4--------------------------------------|
|---2-------------------------------0-------------2----------------|

| | | |
|------------------------------------------------------------------|
|------------------------------------------------------------------|
|-2-------------------------------2--------------------------------|
|------------------------------------------------------------------|

| | | |
|-----------------------------------------------------------------||
|-----------------------------------------------------------------||
|-------------------4-------2-----4-------------------------------||
|---0---------------------------------------------0---------------||

>1| | | |
|-2-----------------------------------1----------------------------|
|---------------------------------------------------0--------------|
|---------------------------------------------------------0--------|
|------------------------------------------------------------------|

| | | |
|------------------------------------------------------------------|
|---4--------------------------------------------------------------|
|------------------------------------------------------------------|
|------------------------------------------------------------------|

| | | |
|------------------------------------------------------------------|
|------------------------------------------------------------------|
|------------------------------------------------------------------|
|------------------------------------------------------------------|

| | | |
|------------------------------------------------------------------|
|---4--------------------------------------------------------------|
|-----------------------------------0------------------------------|
|------------------------------------------------------------------|

| | | |
|------------------------------------------------------------------|
|------------------------------------------------------------------|
|------------------------------------------------------------------|
|---0-------------------------------2------------------------------|

| | | |
|------------------------------------------------------------------|
|------------------------------------------------------------------|
|---2-------------------------------2------------------------------|
|------------------------------------------------------------------|

| | | |
|------------------------------------------------------------------|
|------------------------------------------------------------------|
|------------------------------------------------------------------|
|-0-------------------------------0--------------------------------|

| | | |
|-------------------------------------------------4----------------|
|---4--------------------------------------------------------------|
|-----------------2------------------------------------------------|
|------------------------------------------------------------------|

| | | |
|------------------------------------------------------------------|
|------------------------------------------------------------------|
|------------------------------------------------------------------|
|------------------------------------------------------------------|

| | | |
|------------------------------------------------------------------|
|---3---------------------------------------------2----------------|
|-----------------2------------------------------------------------|
|------------------------------------------------------------------|

| | | |
|------------------------------------------------------------------|
|------------------------------------------------------------------|
|------------------------------------------------------------------|
|------------------------------------------------------------------|

| | | |
|------------------------------------------------------------------|
|---4--------------------------------------------------------------|
|---------------------------------------------------1--------------|
|-----------------2------------------------------------------------|

| | | |
|------------------------------------------------------------------|
|------------------------------------------------------------------|
|-----2-------------------------------------------2----------------|
|-----------------------------------------------------------2------|

| | | |
|------------------------------------------------------------------|
|------------------------------------------------------------------|
|-2-------------------------2-------2------------------------------|
|------------------------------------------------------------------|

| | | |
|------------------------------------------------------------------|
|-2---------------------------------2------------------------------|
|------------------------------------------------------------------|
|------------------------------------------------------------------|

| | | |
|------------------------------------------------------------------|
|---4--------------------------------------------------------------|
|---------------------------------------------------2--------------|
|-------------------2-------------4--------------------------------|

| | | |
|---1-------------------------------1------------------------------|
|------------------------------------------------------------------|
|------------------------------------------------------------------|
|------------------------------------------------------------------|

| | | |
|------------------------------------------------------------------|
|---3--------------------------------------------------------------|
|-------------------------------------------------2----------------|
|-------------------1---------------4------------------------------|

| | | |
|------------------------------------------------------------------|
|---4-----------------------------------------------4--------------|
|------------------------------------------------------------------|
|------------------------------------------------------------------|

| | | |
|------------------------------------------------------------------|
|---2--------------------------------------------------------------|
|-------------------0-------------2---------------0----------------|
|------------------------------------------------------------------|

| | | |
|------------------------------------------------------------------|
|-2---------------------------------2------------------------------|
|------------------------------------------------------------------|
|------------------------------------------------------------------|

| | | |
|------------------------------------------------------------------|
|------------------------------------------------------------------|
|-4---------------4-------2---------4------------------------------|
|-------------------------------------------------0----------------|

| | | |
|------------------------------------------------------------------|
|------------------------------------------------------------------|
|---0-------------------------------0---------------0--------------|
|-----------------------------------------------------------0------|

| | | |
|------------------------------------------------------------------|
|------------------------------------------------------------------|
|-0---------------0-------2---------4------------------------------|
|-------------------------------------------------0----------------|

| | | |
|------------------------------------------------------------------|
|------------------------------------------------------------------|
|---2-------------------------------2------------------------------|
|------------------------------------------------------------------|

| | | |
|------------------------------------------------------------------|
|------------------------------------------------------------------|
|-------------------------2-------4--------------------------------|
|---0---------------0-------------------------------0--------------|

| | | |
|------------------------------------------------------------------|
|------------------------------------------------------------------|
|-0----------------------------------------------------------------|
|---------------------------------------------------4--------------|

| | | |
|------------------------------------------------------------------|
|------------------------------------------------------------------|
|---------------------------4--------------------------------------|
|---2-----------------------------0-----------------2--------------|

| | | |
|------------------------------------------------------------------|
|------------------------------------------------------------------|
|-2---------------2---------------------------------2--------------|
|-----------------------------------4------------------------------|

| | | |
|------------------------------------------------------------------|
|------------------------------------------------------------------|
|---4-------------4-------2-----4----------------------------------|
|-------------------------------------------------0----------------|

| | | |
|------------------------------------------------------------------|
|---------------------------------------------------------1--------|
|---0-------------------------------0-------------0----------------|
|------------------------------------------------------------------|

| | | |
|------------------------------------------------------------------|
|------------------------------------------------------------------|
|---------------------------2-----4--------------------------------|
|---0---------------0-----------------------------0----------------|

| | | |
|------------------------------------------------------------------|
|------------------------------------------------------------------|
|---2-------------------------------2------------------------------|
|------------------------------------------------------------------|

| | | |
|------------------------------------------------------------------|
|------------------------------------------------------------------|
|-------------------------2-------4--------------------------------|
|---0---------------0-------------------------------0--------------|

| | | |
|------------------------------------------------------------------|
|------------------------------------------------------------------|
|-0----------------------------------------------------------------|
|---------------------------------------------------4--------------|

| | | |
|------------------------------------------------------------------|
|------------------------------------------------------------------|
|-----------------4------------------------------------------------|
|---2-----------------------------0---------------2----------------|

| | | |
|-----------------------------------------------------------------||
|-----------------------------------------------------------------*|
|---2---------------------------------------------2---------------*|
|-----------------------------------4-----------------------------||

>3| | | |
|-2-----------------------------------1----------------------------|
|---------------------------------------------------0--------------|
|---------------------------------------------------------0--------|
|------------------------------------------------------------------|

| | | |
|------------------------------------------------------------------|
|---4--------------------------------------------------------------|
|-------------------------4----------------------------------------|
|-------------------------------0-----------------2----------------|

| | | |
|------------------------------------------------------------------|
|------------------------------------------------------------------|
|------------------------------------------------------------------|
|-4-------------------------------4--------------------------------|

| | | |
||-----------------------------------------------------------------|
|*-----------------------------------------------------------------|
|*--------------------------2-----4--------------------------------|
||--0-----------------------------------------------0--------------|

| | | |
|------------------------------------------------------------------|
|------------------------------------------------------------------|
|------------------------------------------------------------------|
|------------------------------------------------------------------|

| | | |
|------------------------------------------------------------------|
|------------------------------------------------------------------|
|---------------------------2-----4--------------------------------|
|-0-------------------------------------------------0--------------|

>3| | | |
|-----------------------------------------------------------------||
|-----------------------------------------------------------------*|
|-----------------------------------------------------------------*|
|-----------------------------------------------------------------||

| | | |
|------------------------------------------------------------------|
|------------------------------------------------------------------|
|---------------------------2-----4--------------------------------|
|---0-----------------------------------------------0--------------|

| | | |
|------------------------------------------------------------------|
|------------------------------------------------------------------|
|------------------------------------------------------------------|
|-----------------------------------------------------------0------|

| | | |
|------------------------------------------------------------------|
|------------------------------------------------------------------|
|-----------------2-----------------4------------------------------|
|-0-------------------------------------------------0--------------|

| | | |
|---1-------------------------------4------------------------------|
|------------------------------------------------------------------|
|------------------------------------------------------------------|
|------------------------------------------------------------------|

| | | |
|------------------------------------------------------------------|
|-------------------------------------------------2----------------|
|---4-----------------------4-------4------------------------------|
|------------------------------------------------------------------|

| | | |
|-2---------------------------------2---------------1--------------|
|------------------------------------------------------------------|
|------------------------------------------------------------------|
|------------------------------------------------------------------|

| | | |
|------------------------------------------------------------------|
|-----------------------------------------------------------1------|
|-0-------------------------------------------------0--------------|
|------------------------------------------------------------------|

| | | |
|-2---------------------------------2---------------1--------------|
|------------------------------------------------------------------|
|------------------------------------------------------------------|
|------------------------------------------------------------------|

| | | |
|-2-----------------------------------1----------------------------|
|---------------------------------------------------0--------------|
|---------------------------------------------------------0--------|
|------------------------------------------------------------------|

| | | |
|------------------------------------------------------------------|
|------------------------------------------------------------------|
|------------------------------------------------------------------|
|---2--------------------------------------------------------------|

| | | |
|------------------------------------------------------------------|
|------------------------------------------------------------------|
|---0--------------------------------------------------------------|
|-----------------------------------0------------------------------|

| | | |
|------------------------------------------------------------------|
|------------------------------------------------------------------|
|---2-------------------------------2------------------------------|
|------------------------------------------------------------------|

| | | |
|------------------------------------------------------------------|
|-------------------------------------------------2----------------|
|---4-----------------------4-------4------------------------------|
|------------------------------------------------------------------|

| | | |
|------------------------------------------------------------------|
|------------------------------------------------------------------|
|------------------------------------------------------------------|
|---0--------------------------------------------------------------|




Created with TablEdit http://www.tabledit.com/

Copyrights
Auteur: ?
Componist: ?
Uitgever: ?
Meer details
Taal: Engels

Reacties

CommonCrawl [Bot]

Volg Muzikum