Eric Clapton
Layla Unplugged (Bass tab)

Date: Thu, 28 Mar 2002 15:00:26 +0200
From: "Jan Bjorklund"
Subject: c/clapton_eric/layla_unplugged.btab

eric clapton_layla (unplugged)

TablEdited by Jan Bjorklund, Finland
You are welcome to request for tabs!
Fingering and positions as suggested by TablEdit, please use common sense!


TablEdited by Jan Bjorklund
Tuning : E A D G Time Signature: 4/4

| | | |
|------------------------------------------------------------------|
|-----------------------------------------------------------0------|
|-------------------------------------------0-----3----------------|
|------------------------------------------------------------------|

| | | |
||-----------------------------------------------------------------|
|*----------0------------------------------------------------------|
|*----------------3---------1-------------------------------1------|
||-----------------------------------------------------------------|

>3| | | |
||----------------------------------------------------------------||
|*--------------------------0-------------------------------0-----*|
|*3---------------3-------------------------0-----3---------------*|
||----------------------------------------------------------------||

| | | |
|-----------------------------------------------------------------||
|-----------0-----------------------------------------------------*|
|-----------------3---------1-------------------------------1-----*|
|-----------------------------------------------------------------||

| | | |
||-----------------------------------------------------------------|
|*-----------------------------------------------------------------|
|*3---------------3---------------0---------------3----------------|
||-----------------------------------------------------------------|

| | | |
|------------------------------------------------------------------|
|------------------------------------------------------------------|
|-4-------------------------4-----4--------------------------------|
|------------------------------------------------------------------|

| | | |
|------------------------------------------------------------------|
|-1-------------------------1---------------------1----------------|
|---------------------------------------------------------4--------|
|---------------------------------4--------------------------------|

| | | |
|------------------------------------------------------------------|
|-2-----------------------0-----------------------0----------------|
|---------------------------------3--------------------------------|
|------------------------------------------------------------------|

| | | |
|------------------------------------------------------------------|
|-2---------------2---0-----2---------------------2---------4------|
|-----------2---------------------2--------------------------------|
|------------------------------------------------------------------|

| | | |
|------------------------------------------------------------------|
|---------------------------2--------------------------------------|
|---------------------------------2--------------------------------|
|------------------------------------------------------------------|

| | | |
|------------------------------------------------------------------|
|-2----------------------------------------------------------------|
|---------------------------2-----0--------------------------------|
|-------------------------------------------------4----------------|

| | | |
|------------------------------------------------------------------|
|------------------------------------------------------------------|
|---------------------------3-----2--------------------------------|
|-2---------------------------------------------------------2------|

| | | |
|------------------------------------------------------------------|
|------------------------------------------------------------------|
|---------------------------------0--------------------------------|
|-0----------------------------------------------------------------|

| | | |
|------------------------------------------------------------------|
|-0---------0------------------------------------------------------|
|-----------------3---------1-------------------------------1------|
|------------------------------------------------------------------|

| | | |
||-----------------------------------------------------------------|
|*--------------------------0-------------------------------0------|
|*3---------------3-------------------------0-----3----------------|
||-----------------------------------------------------------------|

>3| | | |
|-----------------------------------------------------------------||
|-----------0-----------------------------------------------------*|
|-----------------3---------1-------------------------------1-----*|
|-----------------------------------------------------------------||

| | | |
|------------------------------------------------------------------|
|------------------------------------------------------------------|
|-3---------------3---------------0---------------3----------------|
|------------------------------------------------------------------|

| | | |
|------------------------------------------------------------------|
|---------------------------0-------------------------------0------|
|-3---------------3-------------------------0-----3----------------|
|------------------------------------------------------------------|

| | | |
|------------------------------------------------------------------|
|---------------------------0--------------------------------------|
|-----3-----0------------------------------------------------------|
|-----------------1------------------------------------------------|



Created with TablEdit http://www.tabledit.com/

Copyrights
Auteur: ?
Componist: ?
Uitgever: ?
Meer details
Taal: Engels

Reacties

CommonCrawl [Bot]

Volg Muzikum