Eric Clapton
I Feel Free (Bass tab)

Date: Thu, 28 Mar 2002 14:47:12 +0200
From: "Jan Bjorklund"
Subject: c/clapton_eric/i_feel_free.btab

Cream_I feel free

TablEdited by Jan Bjorklund, Finland
You are welcome to request for tabs!
Fingering and positions as suggested by TablEdit, please use common sense!


TablEdited by Jan Bjorklund
Tuning : E A D G Time Signature: 4/4

| | | | | | | |
|----------------------------------||---------------------------------|
|---------------------0-------2----|*2-----------2---2-----------2----|
|-------------2--------------------|*---------------------------------|
|----------------------------------||---------------------------------|

| | | | | | | |
||--------------------------------|||--------------------------------||
|*----2-------2---2---0-----------*|*2-----------2---2-----------2---*|
|*------------------------2-------*|*--------------------------------*|
||--------------------------------|||--------------------------------||

| | | | | | | |
|---------------------------------||----------------------------------|
|-----2-------2---2---0-------0---*|-----2-------2---2---0------------|
|-------------------------2-------*|-------------------------2--------|
|---------------------------------||----------------------------------|

| | | | | | | |
||--------7---7---7---5---2--------|-----7---7---7---8---5---2-------||
|*0---------------------------0----|---------------------------------||
|*---------------------------------|---------------------------------||
||---------------------------------|---------------------------------||

>1| | | | | | | |
|---------9---9---9---7---4--------|-----9---9---9---10--7---4-------||
|-2---------------------------2----|---------------------------------*|
|----------------------------------|---------------------------------*|
|----------------------------------|---------------------------------||

>3| | | | | | | |
|----------------------------------|----------------------------------|
|-2-------2---2---2---0-------2----|-----2---2---2---2---0------------|
|-------------------------2--------|-------------------------2--------|
|----------------------------------|----------------------------------|

| | | | | | | |
||---------------------------------|----------------------------------|
|*---------------------------------|-------------2---0----------------|
|*---------------------------------|---------------------2---0--------|
||0--------------------------------|-----------------------------3----|

| | | | | | | |
|----------------------------------|---------------------------------||
|----------------------------------|-----2-------2---0---------------*|
|----------------------------------|---------------------2---0-------*|
|-0--------------------------------|-----------------------------3---||

| | | | | | | |
|---------------------------------||----------------------------------|
|-------------2---2-----------2---*|----------------------------------|
|---------------------------------*|-3--------------------------------|
|-0-------------------------------||----------------------------------|

| | | | | | | |
|-------------5---3---0---0--------|----------------------------------|
|-----------------------------3----|----------------------------------|
|----------------------------------|-1--------------------------------|
|----------------------------------|----------------------------------|

| | | | | | | |
|-----3-------3---1----------------|----------------------------------|
|---------------------3---1---3----|----------------------------------|
|----------------------------------|-0--------------------------------|
|----------------------------------|----------------------------------|

| | | | | | | |
|-------------2---0----------------|----------------------------------|
|---------------------2---0--------|----------------------------------|
|-----------------------------3----|----------------------------------|
|----------------------------------|-1--------------------------------|

| | | | | | | |
|----------------------------------|----------------------------------|
|-----3-------3---1---0------------|-0--------------------------------|
|-------------------------3---0----|----------------------------------|
|----------------------------------|----------------------------------|

| | | | | | | |
|----------------------------------|----------------------------------|
|-------------0--------------------|-2--------------------------------|
|-----------------3---0---3--------|----------------------------------|
|-----------------------------3----|----------------------------------|

| | | | | | | |
|----------------------------------|----------------------------------|
|-------------2---0----------------|-------------------------2--------|
|---------------------2---0--------|-----------------------------2----|
|-----------------------------3----|---------0---0---0----------------|

| | | | | | | |
|----------------------------------|---------9---9---9---7---4--------|
|-----------------0---0---0---0----|-2---------------------------2----|
|-----2-------2--------------------|----------------------------------|
|----------------------------------|----------------------------------|

| | | | | | | |
|-----9---9---9---9---7---4--------|---------9---9---9---7---9---9----|
|----------------------------------|-2--------------------------------|
|----------------------------------|----------------------------------|
|----------------------------------|----------------------------------|

| | | | | | | |
|-9---9---9---9---9---7---4--------|---------9---9---9---7---4---9----|
|----------------------------------|-2--------------------------------|
|----------------------------------|----------------------------------|
|----------------------------------|----------------------------------|

| | | | | | | |
|-----9---9---9---9---7---4--------|---------9---9---9---7---9---9----|
|----------------------------------|-2--------------------------------|
|----------------------------------|----------------------------------|
|----------------------------------|----------------------------------|


Created with TablEdit http://www.tabledit.com/

Copyrights
Auteur: ?
Componist: ?
Uitgever: ?
Meer details
Taal: Engels

Reacties

CommonCrawl [Bot]

Volg Muzikum