Eric Clapton
Im Tore Down (Bass tab)

Date: Thu, 28 Mar 2002 14:48:15 +0200
From: "Jan Bjorklund"
Subject: c/clapton_eric/im_tore_down.btab

eric clapton_im-tore-down

TablEdited by Jan Bjorklund, Finland
You are welcome to request for tabs!
Fingering and positions as suggested by TablEdit, please use common sense!


TablEdited by Jan Bjorklund
Tuning : E A D G Time Signature: 4/4

| | | |
|-----------------0---------0--------------------------------------|
|---------------------------------3---------3-----0----------------|
|------------------------------------------------------------------|
|-3---------3-----------------------------------------------1------|

| | | |
||-----------------------------------------------------------------|
|*----------------3---------3-----1---------1----------------------|
|*------------------------------------------------3---------1------|
||1---------1------------------------------------------------------|

| | | |
|-----------------5---------5-----3---------3-----0---------0-----||
|-----------------------------------------------------------------||
|-3---------3-----------------------------------------------------||
|-----------------------------------------------------------------||

>1| | | |
|-----------------5---------5-----3---------3-----0----------------|
|------------------------------------------------------------------|
|-3---------3------------------------------------------------------|
|------------------------------------------------------------------|

| | | |
|-----------------5---------5-----3---------3-----0---------0------|
|------------------------------------------------------------------|
|-3---------3------------------------------------------------------|
|------------------------------------------------------------------|

| | | |
|-----------------5---------5-----3---------3-----0---------0------|
|------------------------------------------------------------------|
|-3---------3------------------------------------------------------|
|------------------------------------------------------------------|

| | | |
|-----------------5---------5-----3---------3-----0---------0------|
|------------------------------------------------------------------|
|-3---------3------------------------------------------------------|
|------------------------------------------------------------------|

| | | |
|-----------------5---------5-----3---------3-----0----------------|
|------------------------------------------------------------------|
|-3---------3------------------------------------------------------|
|-----------------------------------------------------------0------|

| | | |
|-----------------------------------------------------------------||
|-----------------3---------3-----1---------1---------------------*|
|-------------------------------------------------3---------3-----*|
|-1---------1-----------------------------------------------------||

>2| | | |
|-----------------5---------5-----3-----5---3-----0---------0------|
|------------------------------------------------------------------|
|-3---------3------------------------------------------------------|
|------------------------------------------------------------------|

| | | |
|---------------------------------0---------------5-----4---0------|
|---------------------------3--------------------------------------|
|-3---------3-----3------------------------------------------------|
|------------------------------------------------------------------|

| | | |
||-----------------------------------------------------------------|
|*-----------------------------------------------------------------|
|*3----------------------------------------------------------------|
||-----------------------------------------------------------------|

| | | |
|------------------------------------------------------------------|
|------------------------------------------------------------------|
|-3----------------------------------------------------------------|
|------------------------------------------------------------------|

| | | |
||----------------------------------------------------------------||
|*----------------------------------------------------------------*|
|*3---------------------------------------------------------------*|
||----------------------------------------------------------------||

| | | |
|------------------------------------------------------------------|
|------------------------------------------------------------------|
|-------------------------------------------------3----------------|
|------------------------------------------------------------------|

| | | |
|------------------------------------------------------------------|
|-----------------3---------3-----1---------1----------------------|
|-------------------------------------------------3---------3------|
|-1---------1------------------------------------------------------|

| | | |
|-----------------5---------5-----3-----5---3-----0---------0------|
|------------------------------------------------------------------|
|-3---------3------------------------------------------------------|
|------------------------------------------------------------------|

| | | |
|-----------------5---------5-----3---------------0-----3---0------|
|-------------------------------------------3----------------------|
|-3---------3------------------------------------------------------|
|------------------------------------------------------------------|

| | | |
|-----------------5---------5-----3-----5---3-----0---------0------|
|------------------------------------------------------------------|
|-3---------3------------------------------------------------------|
|------------------------------------------------------------------|

| | | |
|-----------------5---------5-----3---------3-----5-----3---0------|
|------------------------------------------------------------------|
|-3---------3------------------------------------------------------|
|------------------------------------------------------------------|

| | | |
|-----------------5---------0-----3---------3-----0---------0------|
|------------------------------------------------------------------|
|-3----------------------------------------------------------------|
|------------------------------------------------------------------|

| | | |
|-----------------5---------0-----3---------3-----0---------0------|
|------------------------------------------------------------------|
|-3----------------------------------------------------------------|
|------------------------------------------------------------------|

| | | |
||----------------5---------0-----3---------3-----0---------0------|
|*-----------------------------------------------------------------|
|*3----------------------------------------------------------------|
||-----------------------------------------------------------------|

| | | |
|-----------------5---------0-----3---------3-----0---------------||
|-----------------------------------------------------------------||
|-3---------------------------------------------------------------||
|-----------------------------------------------------------1-----||

>1| | | |
|------------------------------------------------------------------|
|-----------------3---------------1---------1----------------------|
|---------------------------3---------------------3---------3------|
|-1---------1------------------------------------------------------|

| | | |
|-----------------------------------------------------------------||
|-----------------3---------------1---------1---------------------*|
|---------------------------3---------------------3---------3-----*|
|-1---------1-----------------------------------------------------||

>2| | | |
|-----------------0------------------------------------------------|
|---------------------------0-----3---------3-----0---------0------|
|------------------------------------------------------------------|
|-3---------3------------------------------------------------------|

| | | |
|------------------------------------------------------------------|
|-----------------3---------------1---------1----------------------|
|---------------------------3---------------------3---------1------|
|-1---------1------------------------------------------------------|

| | | |
|-----------------5---------5-----3---------3-----0---------0------|
|------------------------------------------------------------------|
|-3----------------------------------------------------------------|
|------------------------------------------------------------------|

| | | |
|---------------------------------0-----3---0-----3----------------|
|-------------------------3----------------------------------------|
|-3----------------------------------------------------------------|
|------------------------------------------------------------------|

| | | |
|------------------------------------------------------------------|
|-----------------0---------0-----1---------1-----2---------2------|
|-3---------3------------------------------------------------------|
|------------------------------------------------------------------|

| | | |
|-----------------10--------10----8---------8-----5---------5------|
|-3-----------3----------------------------------------------------|
|------------------------------------------------------------------|
|------------------------------------------------------------------|

| | | |
|-----------------10--------10----8---------8-----5---------5------|
|-3-----------3----------------------------------------------------|
|------------------------------------------------------------------|
|------------------------------------------------------------------|

| | | |
|-----------------0---------0--------------------------------------|
|---------------------------------3---------3-----0----------------|
|------------------------------------------------------------------|
|-3---------3-----------------------------------------------1------|

| | | |
|------------------------------------------------------------------|
|-----------------3---------3-----1---------1----------------------|
|-------------------------------------------------1---------2------|
|-1---------1------------------------------------------------------|

| | | |
|-----------------5---------5-----3---------3-----0---------0------|
|------------------------------------------------------------------|
|-3---------3------------------------------------------------------|
|------------------------------------------------------------------|

| | | |
|-------------------------0-------4-----0---4-----0---------4------|
|------------------------------------------------------------------|
|-3----------------------------------------------------------------|
|------------------------------------------------------------------|

| | | |
|-----------------5---------5-----3-----5---3-----0---------0------|
|------------------------------------------------------------------|
|-3---------3------------------------------------------------------|
|------------------------------------------------------------------|

| | | |
|-------------------------------------0-----4-----5-----4---0------|
|-----------------2---------2-----3--------------------------------|
|-3---------3------------------------------------------------------|
|------------------------------------------------------------------|

| | | |
|-----------------5---------5-----3---------3-----0-----0---0------|
|------------------------------------------------------------------|
|-3---------3------------------------------------------------------|
|------------------------------------------------------------------|

| | | |
|------------------------------------------------------------------|
|------------------------------------------------------------------|
|-3---------3-----1---------1-----0---------0----------------------|
|-------------------------------------------------3---------3------|

| | | |
|------------------------------------------------------------------|
|-----------------3---------3-----1---------1----------------------|
|-------------------------------------------------3---------3------|
|-1---------1------------------------------------------------------|

| | | |
|-----------------5---------5-----3-----5---3-----0---------0------|
|------------------------------------------------------------------|
|-3---------3------------------------------------------------------|
|------------------------------------------------------------------|

| | | |
|-----------------0---------0--------------------------------------|
|---------------------------------3---------3-----0----------------|
|------------------------------------------------------------------|
|-3---------3-----------------------------------------------1------|

| | | |
|------------------------------------------------------------------|
|------------------------------------------------------------------|
|------------------------------------------------------------------|
|-1----------------------------------------------------------------|

| | | |
|------------------------------------------------------------------|
|------------------------------------------------------------------|
|---------3--------------------------------------------------------|
|-------------0-------------------1---------1-----2---------2------|

| | | |
|------------------------------------------------------------------|
|-----------------0------------------------------------------------|
|---------------------------3--------------------------------------|
|-3----------------------------------------------------------------|

| | | |
|------------------------------------------------------------------|
|------------------------------------------------------------------|
|------------------------------------------------------------------|
|------------------------------------------------------------------|

| | | |
|------------------------------------------------------------------|
|------------------------------------------------------------------|
|-----------------3------------------------------------------------|
|------------------------------------------------------------------|


Created with TablEdit http://www.tabledit.com/

Copyrights
Auteur: ?
Componist: ?
Uitgever: ?
Meer details
Taal: Engels

Reacties

CommonCrawl [Bot]

Volg Muzikum