Eric Clapton
Holy Mother (Bass tab)

Date: Thu, 28 Mar 2002 14:45:13 +0200
From: "Jan Bjorklund"
Subject: c/clapton_eric/holy_mother.btab

eric clapton_holy-mother

TablEdited by Jan Bjorklund, Finland
You are welcome to request for tabs!
Fingering and positions as suggested by TablEdit, please use common sense!


TablEdited by Jan Bjorklund
Tuning : E A D G Time Signature: 4/4

| | | | | | | |
|----------------------------------||---------------------------------|
|----------------------------------|*---------------------------------|
|-3--------------------------------|*2--------------------------------|
|----------------------------------||---------------------------------|

| | | | >1| | | |
|---------------------------------||-------------0--------------------|
|-2-------------------------------||-4--------------------------------|
|---------------------------------||----------------------------------|
|---------------------------------||----------------------------------|

| | | | >2| | | |
|---------------------------------||----------------------------------|
|---------------------------------*|-0-----------------------4--------|
|-3---------------------------0---*|----------------------------------|
|---------------------------------||----------------------------------|

| | | | | | | |
|----------------------------------|----------------------------------|
|----------------------------------|----------------------------------|
|----------------------------------|-----------------------0----------|
|-3/----------3--------------------|-3-----------3-------3---3---2----|

| | | | | | | |
||---------------------------------|---------------------------------||
|*---------------------------------|---------------------------------||
|*---------------------------------|-------------------------3/11----||
||0-----------0--------------------|-2-----------3-------3-----------||

>1| | | | | | | |
|----------------------------------|----------------------------------|
|-----------------------------0----|----------------------------------|
|----------------------------------|----------------------------------|
|-3-----------3--------------------|-3-----------3-----------2--------|

| | | | | | | |
|----------------------------------|----------------------------------|
|-----------------0----------------|----------------------------------|
|----------------------------------|----------------------------------|
|-0--------------------------------|-3-------------3-3----------------|

| | | | | | | |
|-------------9--------------------|-------------7--------------------|
|----------------------------------|----------------------------------|
|-3--------------------------------|-2--------------------------------|
|----------------------------------|----------------------------------|

| | | | | | | |
|----------------------------------|-------------0--------------------|
|-----------------0----------------|----------------------------------|
|-0--------------------------------|----------------------------------|
|----------------------------------|-3--------------------------------|

| | | | | | | |
|-------------9--------------------|-------------7--------------------|
|----------------------------------|----------------------------------|
|-3--------------------------------|-2--------------------------------|
|----------------------------------|----------------------------------|

| | | | | | | |
|----------------------------------|----------------------------------|
|-2--------------------------------|-4-----------------------0--------|
|----------------------------------|----------------------------------|
|----------------------------------|----------------------------------|

| | | | | | | |
|----------------------------------|---------------------------------||
|----------------------------------|---------------------------------*|
|----------------------------------|---------------------------------*|
|-3/----------3---3----------------|-3-----------3---------------2---||

>2| | | | | | | |
|----------------------------------|----------------------------------|
|-----------------------------0----|----------------------------------|
|----------------------------------|----------------------------------|
|-3-----------3---3----------------|-3-----------3-----------2--------|

| | | | | | | |
|----------------------------------|----------------------------------|
|----------------------------------|----------------------------------|
|----------------------------------|----------------------------------|
|-0-----------0--------------------|-2-----------3--------------------|

| | | | | | | |
|----------------------------------|----------------------------------|
|----------------------------------|----------------------------------|
|-3-----------3---3-----------3----|-2-----------2-------2---2--------|
|----------------------------------|----------------------------------|

| | | | | | | |
|----------------------------------|-------------0--------------------|
|-2--------------------------------|-4---------------------------0----|
|----------------------------------|-------------------------2--------|
|----------------------------------|---------------------3------------|

| | | | | | | |
|----------------------------------|----------------------------------|
|----------------------------------|----------------------------------|
|-3-----------3---3----------------|-2-----------2---2----------------|
|----------------------------------|----------------------------------|

| | | | | | | |
|----------------------------------|----------------------------------|
|-2-----------2---2----------------|-0-----------------------0--------|
|----------------------------------|----------------------------------|
|----------------------------------|----------------------------------|

| | | | | | | |
|-0---------------0----------------|-0---------------0---0-2-0--------|
|-----------------------------0----|-----------------------------4----|
|----------------------------------|----------------------------------|
|----------------------------------|----------------------------------|

| | | | | | | |
|----------------------------------|-------------0--------------------|
|-2--------------------------------|-4-------------------0-2-0--------|
|----------------------------------|---------------------------0-2-0--|
|----------------------------------|----------------------------------|

| | | | | | | |
|----------------------------------|----------------------------------|
|----------------------------------|-----------------------------0----|
|-------------------------2--------|-3--------------------------------|
|-3--------------------------------|-------------3--------------------|

| | | | | | | |
|----------------------------------|----------------------------------|
|-2--------------------------------|-----------------0----------------|
|----------------------------------|-3--------------------------------|
|----------------------------------|----------------------------------|

| | | | | | | |
|----------------------------------|----------------------------------|
|----------------------------------|-------------------------0-7------|
|----------------------------------|----------------------------------|
|-3--------------------------------|-3-----------3---3----------------|

| | | | | | | |
|----------------------------------|----------------------------------|
|----------------------------------|----------------------------------|
|----------------------------------|----------------------------------|
|-3-----------3---3----------------|-3-----------3-----------2--------|

| | | | | | | |
|----------------------------------|----------------------------------|
|----------------------------------|---------------------0-------0----|
|----------------------------------|----------------------------------|
|-0-----------0---0----------------|-2-----------3--------------------|

| | | | | | | |
|----------------------------------|----------------------------------|
|-------------------------0--------|----------------------------------|
|----------------------------------|-----------------------0----------|
|-3-----------3---3----------------|-3/----------3-------3---3---2----|

| | | | | | | |
|----------------------------------|----------------------------------|
|----------------------------------|-------------------0-----0---0----|
|----------------------------------|----------------------------------|
|-0-----------0---0----------------|-2-----------3--------------------|

| | | | | | | |
|---------0------------------------|----------------------------------|
|-------------------------0--------|-----------------------------0-1--|
|----------------------------------|---------------------2------------|
|-3-----------3---3----------------|-3-----------3--------------------|

| | | | | | | |
|----------------------------------|---------------------0------------|
|-2-----------2---2----------------|----------------------------------|
|---------------------2------------|-----------------------------0----|
|-------------------------3---0----|-2-----------3-----------3--------|

| | | | | | | |
|----------------------------------|---------0------------------------|
|----------------------------------|-------2--------------------------|
|----------------------------------|-3--------------------------------|
|-3-----------3---3----------------|-------------3-----------2--------|

| | | | | | | |
|----------------------------------|----------------------------------|
|----------------------------------|----------------------------------|
|----------------------------------|----------------------------------|
|-0-----------0---0----------------|-2-----------3--------------------|

| | | | | | | |
|-------0--------------------------|---------0------------------------|
|-------------------------0--------|----------------------------------|
|----------------------------------|-------------------------0-2------|
|-3-------3---3--------------------|-3-----------3--------------------|

| | | | | | | |
|----------------------------------|----------------------------------|
|----------------------------------|----------------------------------|
|----------------------------------|---------0---------2-----0--------|
|-0-----------0---0----------------|-2-----------3--------------------|

| | | | | | | |
|----------------------------------|----------------------------------|
|-------------------------0--------|----------------------------------|
|-----------------2----------------|-3--------------------------------|
|-3-----------3--------------------|---------0---3-----------2--------|

| | | | | | | |
|----------------------------------|----------------------------------|
|----------------------------------|-----------------------------0----|
|-----------------2----------------|---------0-----------2---3--------|
|-0-----------0-----------3--------|-2-----------3--------------------|

| | | | | | | |
|----------------------------------|----------------------------------|
|----------------------------------|----------------------------------|
|----------------------------------|-------------------------0---2----|
|-3-----------3-------3---3--------|-3-----------3--------------------|

| | | | | | | |
|----------------------------------|----------------------------------|
|---------2------------------------|---------4-----------0-----0------|
|-------------------------2--------|----------------------------------|
|-0-----------0---0----------------|-2-----------3--------------------|

| | | | | | | |
|-------------------------0--------|-------------0--------------------|
|----------------------------------|-------0-2------------------------|
|----------------------------------|-3---------------------------2----|
|-3-----------3---3----------------|---------------------3---2--------|

| | | | | | | |
|----------------------------------|----------------------------------|
|----------------------------------|-------------------0-----0--------|
|-----------------------------2----|---------0------------------------|
|-0-----------0---0----------------|-2-------3---3--------------------|

| | | | | | | |
|-------------------------0--------|----------------------------------|
|-------------------------4--------|----------------------------------|
|----------------------------------|----------------------------------|
|-3-----------3---3----------------|-3-----------3-------3-----2------|

| | | | | | | |
|----------------------------------|----------------------------------|
|-------------------------2--------|-------------------0---------0----|
|----------------------------------|----------------------------------|
|-0-----------0---0----------------|-2-----------3--------------------|

| | | | | | | |
|-------------------------4--------|-2-----------0-------0------------|
|----------------------------------|-------------------------4---0----|
|----------------------------------|----------------------------------|
|-3-----------3---3----------------|----------------------------------|

| | | | | | | |
|----------------------------------|----------------------------------|
|-2-----------------------2--------|-0--------------------------------|
|----------------------------------|----------------------------------|
|----------------------------------|-------------3--------------------|



Created with TablEdit http://www.tabledit.com/

Copyrights
Auteur: ?
Componist: ?
Uitgever: ?
Meer details
Taal: Engels

Reacties

CommonCrawl [Bot]

Volg Muzikum