Eric Clapton
Have You Ever Loved A Woman (Bass tab)

Date: Thu, 28 Mar 2002 14:44:19 +0200
From: "Jan Bjorklund"
Subject: c/clapton_eric/have_you_ever_loved_a_woman.btab

eric clapton_have-you-ever-loved-a-woman

TablEdited by Jan Bjorklund, Finland
You are welcome to request for tabs!
Fingering and positions as suggested by TablEdit, please use common sense!


TablEdited by Jan Bjorklund
Tuning : E A D G Time Signature: 12/8

| | | |
||-------------------------------------------------|
|*-------------------------------------------------|
|*0-------0-------------------------------3---4----|
||------------3-------3---2-------2---0------------|

| | | |
|--------------------------------------------------|
|-0------------------------------------------------|
|-------------------------0-----------2------------|
|-------------2------------------------------------|

| | | |
|--------------------------------------------------|
|--------------------------------------------------|
|-0-------0----------------------------------------|
|-------------3-------3---2-------2---0---3---4----|

| | | |
|--------------------------------------------------|
|--------------------------------------------------|
|-0-------0---------------------------4-------0----|
|-------------3-------3---0-------0----------------|

| | | |
|--------------------------------------------------|
|-0-------0----------------------------------------|
|-------------3-------3---2-------2---0---3---4----|
|--------------------------------------------------|

| | | |
|--------------------------------------------------|
|-0-------0---------------0-------0----------------|
|-------------2-------2----------------------------|
|-------------------------------------0-------0----|

| | | |
|--------------------------------------------------|
|--------------------------------------------------|
|-0-------0-----------------------------------0----|
|-------------3-------3---2-------2---0------------|

| | | |
|--------------------------------------------------|
|-----------------------------------------0---1----|
|-0-------0----------------------------------------|
|-------------3-------3---2-------2---0------------|

| | | |
|--------------------------------------------------|
|-------------------------------------0------------|
|-------------------------2-------2-------3---4----|
|-0-------0---4-------4----------------------------|

| | | |
|--------------------------------------------------|
|-0------------------------------------------------|
|-------------3-----------2-----------3------------|
|-----------------------------------------3---4----|

| | | |
|-------------------------------------------------||
|---------------------0-----------------------0---||
|-0-------0---3---4-------0-------0---3---4-------||
|-------------------------------------------------||

>1| | | |
|--------------------------------------------------|
|-----------------0---1---------------0---1---2----|
|-0-------0---4-------------------2----------------|
|-------------------------0------------------------|

| | | |
|--------------------------------------------------|
|--------------------------------------------------|
|-0---------------------------------------3---4----|
|-------------3-----------2-----------0------------|

| | | |
|--------------------------------------------------|
|-0------------------------------------------------|
|-------------3-----------2-----------3------------|
|--------------------------------------------------|

| | | |
|--------------------------------------------------|
|--------------------------------------------------|
|-0-------0-------------------------------4--------|
|-------------3-------3---2-------2---0-------0----|

| | | |
|--------------------------------------------------|
|--------------------------------------------------|
|-0-------0----------------------------------------|
|-------------3-------3---2-------2---0-------0----|

| | | |
|--------------------------------------------------|
|-0-------0----------------------------------------|
|-------------3-------3---2-------2---0---3---4----|
|--------------------------------------------------|

| | | |
|--------------------------------------------------|
|-0-----------------------0------------------------|
|-------------3------------------------------------|
|-------------------------------------0---3---4----|

| | | |
|--------------------------------------------------|
|--------------------------------------------------|
|-0-------0----------------------------------------|
|-------------3-------3---2-------2---0---3---4----|

| | | |
|--------------------------------------------------|
|-----------------------------------------0---1----|
|-0-------0---2-------2---0-------0----------------|
|-------------------------------------2------------|

| | | |
|--------------------------------------------------|
|-------------0-------0----------------------------|
|-------------------------4-------4---2---3---4----|
|-0-------0----------------------------------------|

| | | |
|--------------------------------------------------|
|-0------------------------------------------------|
|-------------------------0-----------2------------|
|-------------2---------------------------3---4----|

| | | |
|--------------------------------------------------|
|---------------------0----------------------------|
|-0-------0---------------3-------3---2------------|
|-------------3---------------------------3---4----|

| | | |
|-------------------------------------------------||
|-------------------------------------0-----------*|
|-0-------0-------------------------------4---2---*|
|-------------3-------3---0-------0---------------||

>4| | | |
|--------------------------------------------------|
|---------------------0----------------------------|
|-0-------0---3---4-------0-------0----------------|
|--------------------------------------------------|




Created with TablEdit http://www.tabledit.com/

Copyrights
Auteur: ?
Componist: ?
Uitgever: ?
Meer details
Taal: Engels

Reacties

CommonCrawl [Bot]

Volg Muzikum