Eric Clapton
Crossroads (Bass tab)

Date: Thu, 28 Mar 2002 14:43:14 +0200
From: "Jan Bjorklund"
Subject: c/clapton_eric/crossroads.btab

eric clapton_crossroads

TablEdited by Jan Bjorklund, Finland
You are welcome to request for tabs!
Fingering and positions as suggested by TablEdit, please use common sense!


TablEdited by Jan Bjorklund
Tuning : E A D G Time Signature: 4/4

| | | | | | | |
|----------------------------------|----------------------------------|
|----------------------------------|-0---0-------0-------0------------|
|----------------------------------|---------3---------3-----3--------|
|----------------------------------|-----------------------------1----|

| | | | | | | |
|----------------------------------|----------------------------------|
|-0---0-------0-------0------------|-0---0-------0-------0------------|
|---------3---------3-----3--------|---------3---------3-----3--------|
|-----------------------------1----|-----------------------------1----|

| | | | | | | |
|----------------------------------|----------------------------------|
|-0---0-------0-------0------------|-0---0-------0-------0------------|
|---------3---------3-----3--------|---------3---------3-----3--------|
|-----------------------------1----|-----------------------------1----|

| | | | | | | |
|-----0-------0-------0------------|----------------------------------|
|---------3---------3-----3---0----|-0---0-------0-------0------------|
|----------------------------------|---------3---------3-----3--------|
|-3--------------------------------|-----------------------------1----|

| | | | | | | |
|----------------------------------|----------------------------------|
|-0---0-------0-------0------------|----------------------------------|
|---------3---------3-----3--------|----------------------------------|
|-----------------------------1----|-3---3-------1---3---3-------1----|

| | | | | | | |
|----------------------------------|----------------------------------|
|----------------------------------|-0---0-------0-------0------------|
|----------------------------------|---------3---------3-----3--------|
|-3---3-------1---3---3-------1----|-----------------------------1----|

| | | | | | | |
|----------------------------------|----------------------------------|
|-0---0-------0-------0------------|----------------------------------|
|---------3---------3-----3--------|-0---0-----------0---0------------|
|-----------------------------1----|-------------3---------------3----|

| | | | | | | |
|----------------------------------|----------------------------------|
|----------------------------------|-0---0-------0-------0------------|
|----------------------------------|---------3---------3-----3--------|
|-3---3-------1---3---3-------1----|-----------------------------1----|

| | | | | | | |
|----------------------------------|----------------------------------|
|-0---0-------0-------0------------|-0---0-------0-------0------------|
|---------3---------3-----3--------|---------3---------3-----3--------|
|-----------------------------1----|-----------------------------1----|

| | | | | | | |
|-----0-------0-------0------------|----------------------------------|
|---------3---------3-----3---0----|-0---0-------0-------0------------|
|----------------------------------|---------3---------3-----3--------|
|-3--------------------------------|-----------------------------1----|

| | | | | | | |
|----------------------------------|----------------------------------|
|-0---0-------0-------0------------|----------------------------------|
|---------3---------3-----3--------|----------------------------------|
|-----------------------------1----|-3---3-------1---3---3-------1----|

| | | | | | | |
|----------------------------------|----------------------------------|
|----------------------------------|-0---0-------0-------0------------|
|----------------------------------|---------3---------3-----3--------|
|-3---3-------1---3---3-------1----|-----------------------------1----|

| | | | | | | |
|----------------------------------|----------------------------------|
|-0---0-------0-------0------------|----------------------------------|
|---------3---------3-----3--------|-0---0-----------0---0------------|
|-----------------------------1----|-------------3---------------3----|

| | | | | | | |
|----------------------------------|----------------------------------|
|----------------------------------|-0---0-------0-------0------------|
|----------------------------------|---------3---------3-----3--------|
|-3---3-------1---3---3-------1----|-----------------------------1----|

| | | | | | | |
|----------------------------------|----------------------------------|
|-0---0-------0-------0------------|-0---0-------0-------0------------|
|---------3---------3-----3--------|---------3---------3-----3--------|
|-----------------------------1----|-----------------------------1----|

| | | | | | | |
|-----0-------0-------0------------|----------------------------------|
|---------3---------3-----3---0----|-0---0-------0-------0------------|
|----------------------------------|---------3---------3-----3--------|
|-3--------------------------------|-----------------------------1----|

| | | | | | | |
|----------------------------------|----------------------------------|
|-0---0-------0-------0------------|----------------------------------|
|---------3---------3-----3--------|----------------------------------|
|-----------------------------1----|-3---3-------1---3---3-------1----|

| | | | | | | |
|----------------------------------|----------------------------------|
|----------------------------------|-0---0-------0-------0------------|
|----------------------------------|---------3---------3-----3--------|
|-3---3-------1---3---3-------1----|-----------------------------1----|

| | | | | | | |
|----------------------------------|----------------------------------|
|-0---0-------0-------0------------|----------------------------------|
|---------3---------3-----3--------|-0---0-----------0---0------------|
|-----------------------------1----|-------------3---------------3----|

| | | | | | | |
|----------------------------------|----------------------------------|
|----------------------------------|-0---0-------0-------0------------|
|----------------------------------|---------3---------3-----3--------|
|-3---3-------1---3---3-------1----|-----------------------------1----|

| | | | | | | |
|----------------------------------|----------------------------------|
|-0---0-------0-------0------------|-0---0-------0-------0------------|
|---------3---------3-----3--------|---------3---------3-----3--------|
|-----------------------------1----|-----------------------------1----|

| | | | | | | |
|-----0-------0-------0------------|----------------------------------|
|---------3---------3-----3---0----|-0---0-------0-------0------------|
|----------------------------------|---------3---------3-----3--------|
|-3--------------------------------|-----------------------------1----|

| | | | | | | |
|----------------------------------|----------------------------------|
|-0---0-------0-------0------------|----------------------------------|
|---------3---------3-----3--------|----------------------------------|
|-----------------------------1----|-3---3-------1---3---3-------1----|

| | | | | | | |
|----------------------------------|----------------------------------|
|----------------------------------|-0---0-------0-------0------------|
|----------------------------------|---------3---------3-----3--------|
|-3---3-------1---3---3-------1----|-----------------------------1----|

| | | | | | | |
|----------------------------------|----------------------------------|
|-0---0-------0-------0------------|----------------------------------|
|---------3---------3-----3--------|-0---0-----------0---0------------|
|-----------------------------1----|-------------3---------------3----|

| | | | | | | |
|----------------------------------|----------------------------------|
|----------------------------------|-0---0-------0-------0------------|
|----------------------------------|---------3---------3-----3--------|
|-3---3-------1---3---3-------1----|-----------------------------1----|

| | | | | | | |
|----------------------------------|----------------------------------|
|-0---0-------0-------0------------|-0---0-------0-------0------------|
|---------3---------3-----3--------|---------3---------3-----3--------|
|-----------------------------1----|-----------------------------1----|

| | | | | | | |
|-----0-------0-------0------------|----------------------------------|
|---------3---------3-----3---0----|-0---0-------0-------0------------|
|----------------------------------|---------3---------3-----3--------|
|-3--------------------------------|-----------------------------1----|

| | | | | | | |
|----------------------------------|----------------------------------|
|-0---0-------0-------0------------|----------------------------------|
|---------3---------3-----3--------|----------------------------------|
|-----------------------------1----|-3---3-------1---3---3-------1----|

| | | | | | | |
|----------------------------------|----------------------------------|
|----------------------------------|-0---0-------0-------0------------|
|----------------------------------|---------3---------3-----3--------|
|-3---3-------1---3---3-------1----|-----------------------------1----|

| | | | | | | |
|----------------------------------|----------------------------------|
|-0---0-------0-------0------------|----------------------------------|
|---------3---------3-----3--------|-0---0-----------0---0------------|
|-----------------------------1----|-------------3---------------3----|

| | | | | | | |
|----------------------------------|----------------------------------|
|----------------------------------|-0---0-------0-------0------------|
|----------------------------------|---------3---------3-----3--------|
|-3---3-------1---3---3-------1----|-----------------------------1----|

| | | | | | | |
|----------------------------------|----------------------------------|
|-0---0-------0-------0------------|-0---0-------0-------0------------|
|---------3---------3-----3--------|---------3---------3-----3--------|
|-----------------------------1----|-----------------------------1----|

| | | | | | | |
|----------------------------------|-----0-------0-------0------------|
|-0---0-------0-------0------------|---------3---------3-----3---0----|
|---------3---------3-----3--------|----------------------------------|
|-----------------------------1----|-3--------------------------------|

| | | | | | | |
|----------------------------------|----------------------------------|
|-0---0-------0-------0------------|-0---0-------0-------0------------|
|---------3---------3-----3--------|---------3---------3-----3--------|
|-----------------------------1----|-----------------------------1----|

| | | | | | | |
|----------------------------------|----------------------------------|
|----------------------------------|----------------------------------|
|----------------------------------|----------------------------------|
|-3---3-------1---3---3-------1----|-3---3-------1---3---3-------1----|

| | | | | | | |
|----------------------------------|----------------------------------|
|-0---0-------0-------0------------|-0---0-------0-------0------------|
|---------3---------3-----3--------|---------3---------3-----3--------|
|-----------------------------1----|-----------------------------1----|

| | | | | | | |
|----------------------------------|----------------------------------|
|----------------------------------|----------------------------------|
|-0---0-----------0---0------------|----------------------------------|
|-------------3---------------3----|-3---3-------1---3---3-------1----|

| | | | | | | |
|----------------------------------|----------------------------------|
|-0---0-------0-------0------------|-0---0-------0-------0------------|
|---------3---------3-----3--------|---------3---------3-----3--------|
|-----------------------------1----|-----------------------------1----|

| | | | | | | |
|----------------------------------|----------------------------------|
|-0---0-------0-------0------------|-0---0-------0-------0------------|
|---------3---------3-----3--------|---------3---------3-----3--------|
|-----------------------------1----|-----------------------------1----|

| | | | | | | |
|-----0-------0-------0------------|----------------------------------|
|---------3---------3-----3---0----|-0---0-------0-------0------------|
|----------------------------------|---------3---------3-----3--------|
|-3--------------------------------|-----------------------------1----|

| | | | | | | |
|----------------------------------|----------------------------------|
|-0---0-------0-------0------------|----------------------------------|
|---------3---------3-----3--------|----------------------------------|
|-----------------------------1----|-3---3-------1---3---3-------1----|

| | | | | | | |
|----------------------------------|----------------------------------|
|----------------------------------|-0---0-------0-------0------------|
|----------------------------------|---------3---------3-----3--------|
|-3---3-------1---3---3-------1----|-----------------------------1----|

| | | | | | | |
|----------------------------------|----------------------------------|
|-0---0-------0-------0------------|----------------------------------|
|---------3---------3-----3--------|-0---0-----------0---0------------|
|-----------------------------1----|-------------3---------------3----|

| | | | | | | |
|----------------------------------|----------------------------------|
|----------------------------------|-0---0-------0-------0------------|
|----------------------------------|---------3---------3-----3--------|
|-3---3-------1---3---3-------1----|-----------------------------1----|

| | | | | | | |
|----------------------------------|----------------------------------|
|-0---0-------0-------0------------|-0---0-------0-------0------------|
|---------3---------3-----3--------|---------3---------3-----3--------|
|-----------------------------1----|-----------------------------1----|

| | | | | | | |
|-----0-------0-------0------------|----------------------------------|
|---------3---------3-----3---0----|-0---0-------0-------0------------|
|----------------------------------|---------3---------3-----3--------|
|-3--------------------------------|-----------------------------1----|

| | | | | | | |
|----------------------------------|----------------------------------|
|-0---0-------0-------0------------|----------------------------------|
|---------3---------3-----3--------|----------------------------------|
|-----------------------------1----|-3---3-------1---3---3-------1----|

| | | | | | | |
|----------------------------------|----------------------------------|
|----------------------------------|-0---0-------0-------0------------|
|----------------------------------|---------3---------3-----3--------|
|-3---3-------1---3---3-------1----|-----------------------------1----|

| | | | | | | |
|----------------------------------|----------------------------------|
|-0---0-------0-------0------------|----------------------------------|
|---------3---------3-----3--------|-0---0-----------0---0------------|
|-----------------------------1----|-------------3---------------3----|

| | | | | | | |
|----------------------------------|----------------------------------|
|----------------------------------|-----0---0------------------------|
|----------------------------------|-------3---3-0-----0-3------------|
|-3---3-------1---3---3-------1----|-----------------3-------3---1----|

| | | |
|----------------------------------|
|-0--------------------------------|
|-----------------0----------------|
|----------------------------------|


Created with TablEdit http://www.tabledit.com/

Copyrights
Auteur: ?
Componist: ?
Uitgever: ?
Meer details
Taal: Engels

Reacties

CommonCrawl [Bot]

Volg Muzikum