Eric Clapton
After Midnight (Bass tab)

Date: Thu, 4 Jul 2002 07:11:46 +0200 (CEST)
From: =?iso-8859-1?q?Jan=20Bj=F6rklund?=
Subject: c/clapton_eric/after_midnight.btab

eric_clapton-after_midnight.btab

Basstab by Jan Bjorklund, Finland;
jani_bjorklund@yahoo.se
You are welcome to request for basstabs!
Bienvenidos a pedirme transcripciones para el bajo!
Fingering and positions as suggested by TablEdit.

TablEdited by Jan Bjorklund
Tuning : E A D G Time Signature: 4/4

| | | | | | | |
|--------------------------------|--------------------------------|
|--------------------------------|--------------------------------|
|--------------------------------|--------------------------------|
|1-------------------------------|--------------------------------|

| | | | | | | |
|--------------------------------|--------------------------------|
|--------------------1---------1-|----------------3---1---------1-|
|3-----3-----3-------------------|3-----3-------3-----------------|
|----------------1---------------|--------------------------------|

| | | | | | | |
|------------0-------------------|--------------------------------|
|--------------------1---------1-|--------------------1-----1-----|
|3-----3-------------------------|3-----3-------3-----------------|
|----------------1---------------|----------------1---------------|

| | | | | | | |
|------------0-------------------|--------------------------------|
|----------------3---1-----------|1-----1-------1-------3---------|
|3-----3-------3-----------------|----------------------------3---|
|--------------------------------|----------------1---------------|

| | | | | | | |
|--------------------------------|--------------------------------|
|--------------------1-----1-----|--------------------1-----1-----|
|3-----3-----3-------------------|3-----3-------3-----------------|
|----------------1---------------|----------------1---------------|

| | | | | | | |
|--------------------------------|--------------------------------|
|--------------------1-----------|1-----1-----1---------3---------|
|3-----3-----3-------------------|----------------------------3---|
|----------------1---------------|----------------1---------------|

| | | | | | | |
|--------------------------------|--------------------------------|
|--------------------1-----------|--------------------1---------1-|
|3-----3-------3-----------------|3-----3-------3-----------------|
|----------------1---------------|----------------1---------------|

| | | | | | | |
|----------------------------0---|--------------------------------|
|--------------------------------|------3---------3---------------|
|3-----3---------3-----3-------3-|------------3---------------3---|
|------------3-------------------|1---------------------1---------|

| | | | | | | |
|--------------------------------|------0---------0---------------|
|------3---------------3-------3-|------------0---------------0---|
|--------------3-----------------|--------------------------------|
|1---------------1---------------|3---------------------3---------|

| | | | | | | |
|------0---------0-----------0---|--------------------------------|
|------------0-------------------|--------------------1---------1-|
|--------------------------------|3-----3-----3-------------------|
|3---------------------3---------|----------------1---------------|

| | | | | | | |
|--------------------------------|--------------------------------|
|1-----1-------------------------|------------2---3---1---------1-|
|------------1-------------------|3-----3-------------------------|
|----------------1-----1-----1---|--------------------------------|

| | | | | | | |
|--------------------------------|--------------------------------|
|--------------------1-----1-----|--------------------1---------1-|
|3-----3-----3-------------------|3-----3-----3-------------------|
|----------------1---------------|----------------1---------------|

| | | | | | | |
|--------------------------------|------------0-------------------|
|1-----1-------1-------3---------|--------------------1---------1-|
|----------------------------3---|3-----3-------3-----------------|
|----------------1---------------|----------------1---------------|

| | | | | | | |
|--------------------------------|------5-------------------------|
|--------------------1---------1-|------------5-------1-----------|
|3-----3-------3-----------------|3-------------------------------|
|----------------1---------------|----------------1---------------|

| | | | | | | |
|------------3-------------------|--------------------------------|
|1-----1-------1-----------------|--------------------1---------1-|
|----------------------------3---|3-----3-------3-----------------|
|----------------1-----1-------1-|----------------1---------------|

| | | | | | | |
|--------------------------------|----------------------------0---|
|--------------------1---------1-|--------------------------------|
|3-----3-----3-------------------|3-----3---------3-----3-------3-|
|----------------1---------------|------------3-------------------|

| | | | | | | |
|--------------------------------|--------------------------------|
|3-----3---------3-----3---------|------3---------3-----------3---|
|------------3---------------3---|------------3-------------------|
|--------------------------------|1---------------------1---------|

| | | | | | | |
|------0---------0---------------|------------------------7-------|
|------------0---------------0---|5-----5---------5---------5-----|
|--------------------------------|--------------5-----------------|
|3---------------------3---------|------------------------------7-|

| | | | | | | |
|------5-------------------------|------------0-------------------|
|------------5-------1-----1-----|1-----1-------------3-----------|
|3-------------------------------|------------------------------3-|
|----------------1---------------|----------------1---------------|

| | | | | | | |
|--------------------------------|--------------------------------|
|--------------------1---------1-|------------2---3---1-----1-----|
|3-----3-------3-----------------|3-----3-------------------------|
|----------------1---------------|--------------------------------|

| | | | | | | |
|--------------------------------|--------------------------------|
|--------------------1---------1-|1---1---------1-----------------|
|3-----3-------3-----------------|--1-----------------------------|
|----------------1---------------|----------------1-----1-------1-|

| | | | | | | |
|--------------------------------|--------------------------------|
|--------------2-3---1-----1-----|2---2---------2-3---1---------1-|
|3---3---------------------------|--------------------------------|
|--------------------------------|--------------------------------|

| | | | | | | |
|--------------------------------|--------------------------------|
|--------------------1---------1-|1---1---------1-----------------|
|3-----3-------3-----------------|--1-------------------------3---|
|----------------1---------------|----------------1-----1-------1-|

| | | | | | | |
|--------------------------------|--------------------------------|
|--------------------1---------1-|--------------------1---------1-|
|3-----3-----3-------------------|3-----3-------3-----------------|
|----------------1---------------|----------------1---------------|

| | | | | | | |
|--------------------------------|--------------------------------|
|----------------------------2---|------3---------3---------------|
|3-----3---------3-----3---------|------------3---------------3---|
|------------3-------------------|1---------------------1---------|

| | | | | | | |
|--------------------------------|0-----0-------------------------|
|------3---------------3-------3-|------------0-----------------0-|
|--------------3-----------------|--------------------------------|
|1---------------1---------------|----------------3-----3---------|

| | | | | | | |
|0-----0---------0-----0-----0---|--------------------------------|
|------------0-------------------|--------------2-3---1---------1-|
|--------------------------------|3---3---------------------------|
|--------------------------------|--------------------------------|

| | | | | | | |
|--------------------------------|--------------------------------|
|1-----1---------------3---------|--------------------1-----1-----|
|------------1---------------3---|3-----3-----3-------------------|
|----------------1---------------|----------------1---------------|

| | | | | | | |
|--------------------------------|--------------------------------|
|1-----1---------1-----1-----1---|--------------------1---------1-|
|------------1-------------------|3-----3-----3-------------------|
|--------------------------------|----------------1---------------|

| | | | | | | |
|--------------------------------|--------------------------------|
|1-----1-------1-3---3-----------|--------------2-3---1-----------|
|------------------------------2-|3---3---------------------------|
|--------------------------------|--------------------------------|

| | | | | | | |
|--------------------------------|------5-------------------------|
|--------------------1---------1-|------------5-------1---------1-|
|3-----3-----3-------------------|3-------------------------------|
|----------------1---------------|----------------1---------------|

| | | | | | | |
|--------------------------------|--------------------------------|
|1---1---------1-3-------------3-|--------------------1-----1-----|
|--1---------------3-------------|3-----3-----3-------------------|
|--------------------1-----------|----------------1---------------|

| | | | | | | |
|--------------------------------|----------------------------0---|
|------------2---3---1-----1-----|--------------------------------|
|3-----3-------------------------|3-----3---------3-----3-------3-|
|--------------------------------|------------3-------------------|

| | | | | | | |
|--------------------------------|--------------------------------|
|------3---------------3-------3-|3-----3-------------------------|
|--------------3-----------------|------------3-----------------3-|
|1---------------1---------------|----------------1-----1---------|

| | | | | | | |
|0-----0---------0-----0-----0---|------0---------------0-------0-|
|------------0-------------------|--------------0-----------------|
|--------------------------------|--------------------------------|
|--------------------------------|3---------------3---------------|

| | | | | | | |
|------------0-------------------|------------3-------------------|
|--------------------1---------1-|1-----1-------1-----3-----------|
|3-----3-------3-----------------|------------------------------3-|
|----------------1---------------|----------------1---------------|

| | | | | | | |
|--------------------------------|--------------------------------|
|--------------------1-----------|1-----1---------1-----1-----1---|
|3-----3-----3-------------------|------------1-------------------|
|----------------1---------------|--------------------------------|

| | | | | | | |
|------5-------------------------|--------------------------------|
|------------5---3---1---------1-|1---1---------2-------3---------|
|3-------------------------------|----------------------------3---|
|--------------------------------|----------------1---------------|

| | | | | | | |
|--------------------------------|--------------------------------|
|--------------------1---------1-|------------2---3-----3-1-------|
|3-----3-----3-------------------|3-----3-------------------------|
|----------------1---------------|--------------------------------|

| | | | | | | |
|------5-------------------------|--------------------------------|
|------------5-----------1-----1-|1-----1-----1---3---3-----------|
|3-------------------------------|------------------------------2-|
|----------------1---------------|--------------------------------|

| | | | | | | |
|------------0-------------------|------5-------------------------|
|--------------------1---------1-|------------5-------1-----------|
|3-----3-------3-----------------|3-------------------------------|
|----------------1---------------|----------------1---------------|

| | | | | | | |
|--------------------------------|--------------------------------|
|----------------3---1---------1-|1-----1-------------------------|
|3-----3-----3-------------------|------------1-------------------|
|--------------------------------|----------------1-----1-----1---|

| | | | | | | |
|--------------------------------|------5-------------------------|
|--------------------1-----------|------------5-------1---------1-|
|3-----3-------3-----------------|3-------------------------------|
|----------------1---------------|----------------1---------------|

| | | | | | | |
|--------------------------------|--------------------------------|
|------------------------1-----1-|1---1---------2-3-----3-------3-|
|3-----3-------3-----------------|--------------------------------|
|----------------1-1-------------|--------------------------------|

| | | | | | | |
|------5-------------------------|--------------------------------|
|------------5-------1---------1-|------------2---3---1-----1-----|
|3-------------------------------|3-----3-------------------------|
|----------------1---------------|--------------------------------|

| | | | | | | |
|------------0-------------------|--------------------------------|
|--------------------1-----------|1---1-----------3---3-----------|
|3-----3-------3-----------------|--------------1---------------2-|
|----------------1---------------|--------------------------------|

| | | | | | | |
|--------------------------------|------------0-------------------|
|------------------------1-----1-|----------------3-------1-------|
|3-----3-------3-----------------|3-----3-------3-----------------|
|----------------1---------------|----------------------1---------|

| | | | | | | |
|--------------------------------|------------0-------------------|
|------------------------1-----1-|1-----1-------------3-----------|
|3-----3-------3-----------------|------------------------------3-|
|----------------1---------------|----------------1---------------|

| | | | | | | |
|--------------------------------|--------------------------------|
|------------------------1-------|------------------------1-----1-|
|3-----3-----3-------------------|3-----3-----3-------------------|
|----------------1---------------|----------------1---------------|

| | | | | | | |
|------5-------------------------|--------------------------------|
|------------5-----------1-------|--------------------------------|
|3-------------------------------|--------------------------------|
|----------------1-----1---------|--------------------------------|


Created with TablEdit http://www.tabledit.com/

Copyrights
Auteur: ?
Componist: ?
Uitgever: ?
Meer details
Taal: Engels
Beschikbaar op: The Cream Of Clapton (1994)

Reacties

CommonCrawl [Bot]

Volg Muzikum