Eric Clapton

Eric Clapton
Water On The Ground (Guitar tab)

Date: Thu, 6 Jul 2000 11:10:53 -0400
From: "Steve Garner"
Subject: c/clapton_eric/water_on_the_ground.tab


WATER ON THE GROUND
Eric Clapton

from the album "Crossroads 2: Live in the Seventies"


transcribed by Steve Garner (s_garner@hotmail.com)


This song has only 2 main picking patterns. Listen to
the album to hear when you should play each one. The
first one is played throughout the majority of the song,
and the second one comes in around the third line of each
verse, or what you could call the "chorus". Play it once,
then go back to repeating the first one.


Pattern #1:
|------------------------------------------------------|
|--------4------------4------------4------------4------|
|--------4------------4------------4------------4------|
|-----4------------4------------4------------4---------|
|------------------------------------------------------|
|�-2---------2--0---------0--2---------2--0---------0--|

Pattern #2:
|--------0--------0--0---------------------------------|
|-----0--0--------0--0-------------2-----------2-------|
|-----1--1--1-----1--1-------------3-----------3-------|
|-----2--2--------2--2----------4-----4-----4-----4----|
|--------------2---------------------------------------|
|�-0----------------------0--2-----------2-------------|

------------------------------------------------------
comments, corrections: s_garner@hotmail.com

OptimusPrime

Toegevoegd door OptimusPrime op di 18 dec, 2001 12:58 pm

Auteur: ?
Componist: ?
Uitgever: ?
Taal: Engels

Reacties

CommonCrawl [Bot]

Volg Muzikum