Eric Clapton

Eric Clapton
Swing Low Sweet Chariot (Guitar chord)

SWING LOW SWEET CHARIOT
Intro: first time, no lead
E / / / A / / / E / / / B / / /
second time, play chords
E / / / A / E / / / B / E / / /
with
E A E
-------------------------------------------------------------------------
-------------------------------------------------------------------------
----------9--11--9--11b13-------13r11--9------9--------------------------
----9--11---------------------------------11-----------------------------
-11----------------------------------------------------------------------
-------------------------------------------------------------------------

E B E
-------------------------------------------------------------------------
-------------------------------------------------------------------------
-/9--9--9----------------------------------------------------------------
-----------11--9---------------------------------------------------------
-------------------------------------------------------------------------
-------------------------------------------------------------------------
E A
Swing low, sweet chariot
E B
Comin' for to carry me home...
E A E
Swing low, sweet chariot
E / B / E
Comin' for to carry me home.

Next verse, same chords.
E A
I looked over Jordan and what did I see...
E B
Comin' for to carry me home...
E A / E /
I saw a band of angels, coming after me...
E / B / E /
Comin' for to carry me home

This sounds good with bar chords and wah-wah-

E A B
EADGBE EADGBE EADGBE
X79997 577655 799877

OptimusPrime

Toegevoegd door OptimusPrime op di 18 dec, 2001 12:58 pm

Auteur: ?
Componist: ?
Uitgever: ?
Taal: Engels

Reacties

CommonCrawl [Bot]

Volg Muzikum