Alice In Chains

Alice In Chains
Blue (Guitar tab)

Song: Blue
Location: January 1989 Demo Tape

Transcriber: Matt Rouse [an294@detroit.freenet.org]

Origin: This file originally came from "Alice In Chains: The Rarities"
Check us out at: http://www.epalis.com/AliceInChains

Notes: This song is in standard tuning, which makes me wonder if Jerry
wrote or played it. The strumming pattern should be fairly accurate,
but by no means perfect. If you have a feel for the timing, you're
just as well off improvising.
The outro features a strange combination of the same guitar
playing slightly different arpeggios in each speaker. If you don't
have two guitarists available, you might want to play the left
speaker arpeggio as it sounds more "full".
Questions, comments, corrections? Send me some e-mail.
Have fun.

[Intro]
[Gtr.1 : Steel String Acoustic w/ Slight Chorus]
E|-0-------------0---0--0--0--0-|-----0---------0---0--0--0--0-|
B|--3------------3---3--3--3--3-|-----3---------3---3--3--3--3-|
G|---0-------0---0---0--0--0--0-|-0---0-----0---0---0--0--0--0-|
D|----4------4-------4--4--4--4-|-4---------4-------4--4--4--4-|
A|-----2-----2-------2--2--2--2-|-2---------2-------2--2--2--2-|
E|------0----0-------0--0--0--0-|-0---------0-------0--0--0--0-|
* * * Gtr.1: This is an upstroke.

[Intro/Verse One]
[Gtr.1 : Steel String Acoustic w/ Slight Chorus]
E|-----0---------0---0--0--0--0-|-----0---------0---0--0--0--0-|
B|-----3---------3---3--3--3--3-|-----3---------3---3--3--3--3-| Play
G|-0---0-----0---0---0--0--0--0-|-0---0-----0---0---0--0--0--0-| Five
D|-4---------4-------4--4--4--4-|-4---------4-------4--4--4--4-| Times
A|-2---------2-------2--2--2--2-|-2---------2-------2--2--2--2-|
E|-0---------0-------0--0--0--0-|-0---------0-------0--0--0--0-|

[Verse One] (cont.)
[Gtr.1 : Steel String Acoustic w/ Slight Chorus]
E|-----0---0-----0---------0---0-----0---|
B|-----0---0-----0---------0---0-----0---|
G|-2---2---2-----2-----2---2---2-----2---|
D|-3-------3-----3-----3-------3-----3---|
A|-3-------3-----3-----3-------3-----3---|
E|-1-------1-----1-----1-------1-----1---|

[Verse One] (cont.)
[Gtr.1 : Steel String Acoustic w/ Slight Chorus]
E|-----0---------0---0--0--0--0-|-----0---------0---0--0--0--0-|
B|-----3---------3---3--3--3--3-|-----3---------3---3--3--3--3-|
G|-0---0-----0---0---0--0--0--0-|-0---0-----0---0---0--0--0--0-|
D|-4---------4-------4--4--4--4-|-4---------4-------4--4--4--4-|
A|-2---------2-------2--2--2--2-|-2---------2-------2--2--2--2-|
E|-0---------0-------0--0--0--0-|-0---------0-------0--0--0--0-|

[Verse One] (cont.)
[Gtr.1 : Steel String Acoustic w/ Slight Chorus]
E|-----0---0-----0---------0---0-----0---|
B|-----0---0-----0---------0---0-----0---|
G|-2---2---2-----2-----2---2---2-----2---|
D|-3-------3-----3-----3-------3-----3---|
A|-3-------3-----3-----3-------3-----3---|
E|-1-------1-----1-----1-------1-----1---|

[Verse One] (cont.)
[Gtr.1 : Steel String Acoustic w/ Slight Chorus]
E|-----0---------0---0--0--0--0-|-----0---------0---0--0--0--0-|
B|-----3---------3---3--3--3--3-|-----3---------3---3--3--3--3-|
G|-0---0-----0---0---0--0--0--0-|-0---0-----0---0---0--0--0--0-|
D|-4---------4-------4--4--4--4-|-4---------4-------4--4--4--4-|
A|-2---------2-------2--2--2--2-|-2---------2-------2--2--2--2-|
E|-0---------0-------0--0--0--0-|-0---------0-------0--0--0--0-|


[First Chorus]
[Gtr.1 : Steel String Acoustic w/ Slight Chorus]
E|-0---0-0---0-------|-0---0-0---0-------|
B|-0---0-0---0-------|-0---0-0---0-------|
G|-8---8-8---8-------|-6---6-6---6-------|
D|-9---9-9---9-------|-7---7-7---7-------|
A|-9---9-9---9-------|-7---7-7---7-------|
E|-7---7-7---7-------|-5---5-5---5-------|

[First Chorus] (cont.)
[Gtr.1 : Steel String Acoustic w/ Slight Chorus]
E|----------2--2-2--0--0--0-0-0-|----------2--2-2--0--0--0-0-0-|
B|----0--0--0--0-0--0--0--0-0-0-|----0--0--0--0-0--0--0--0-0-0-|
G|-1--1--1--1--1-1--1--1--1-1-1-|-1--1--1--1--1-1--1--1--1-1-1-|
D|-2--2--2--2--2-2--2--2--2-2-2-|-2--2--2--2--2-2--2--2--2-2-2-|
A|-2--2--2--2--2-2--2--2--2-2-2-|-2--2--2--2--2-2--2--2--2-2-2-|
E|-0-h2-------------------------|-0-h2-------------------------|
* Gtr.1: Use Thumb * Gtr.1: Use Thumb

[First Chorus] (cont.)
[Gtr.1 : Steel String Acoustic w/ Slight Chorus]
E|-0---0-0---0-------|-0---0-0---0-------|
B|-0---0-0---0-------|-0---0-0---0-------|
G|-8---8-8---8-------|-6---6-6---6-------|
D|-9---9-9---9-------|-7---7-7---7-------|
A|-9---9-9---9-------|-7---7-7---7-------|
E|-7---7-7---7-------|-5---5-5---5-------|

[First Chorus] (cont.)
[Gtr.1 : Steel String Acoustic w/ Slight Chorus]
E|----------2--2-2--0--0--0-0-0-|----------2--2-2--0--0--0-0-0-|
B|----0--0--0--0-0--0--0--0-0-0-|----0--0--0--0-0--0--0--0-0-0-|
G|-1--1--1--1--1-1--1--1--1-1-1-|-1--1--1--1--1-1--1--1--1-1-1-|
D|-2--2--2--2--2-2--2--2--2-2-2-|-2--2--2--2--2-2--2--2--2-2-2-|
A|-2--2--2--2--2-2--2--2--2-2-2-|-2--2--2--2--2-2--2--2--2-2-2-|
E|-0-h2-------------------------|-0-h2-------------------------|
* Gtr.1: Use Thumb * Gtr.1: Use Thumb

[First Chorus] (cont.)
[Gtr.1 : Steel String Acoustic w/ Slight Chorus]
E|-0---0-0---0-------|-0---0-0---0-------|
B|-0---0-0---0-------|-0---0-0---0-------| Play
G|-8---8-8---8-------|-6---6-6---6-------| Twice
D|-9---9-9---9-------|-7---7-7---7-------|
A|-9---9-9---9-------|-7---7-7---7-------|
E|-7---7-7---7-------|-5---5-5---5-------|

[First Chorus] (cont.)
[Gtr.1 : Steel String Acoustic w/ Slight Chorus]
E|------------------------------|------------------------------|
B|------------------------------|------------------------------|
G|-1--1-1-1--1--2-2--2--4-4-4-4-|-1--1-1-1--1--2-2--2--4-4-4-4-|
D|-2--2-2-2--2--3-3--3--5-5-5-5-|-2--2-2-2--2--3-3--3--5-5-5-5-|
A|-2--2-2-2--2--3-3--3--5-5-5-5-|-2--2-2-2--2--3-3--3--5-5-5-5-|
E|-0--0-0-0--0--1-1--1--3-3-3-3-|-0--0-0-0--0--1-1--1--3-3-3-3-|


[First Chorus Outro]
[Gtr.1 : Steel String Acoustic w/ Slight Chorus]
E|-------------------------------|-------------------------------|
B|---------3---------------------|---------3---------------------|
G|-----------0---------0-------0-|-----------0---------0-------0-|
D|-----4-------4----4----4-------|-----4-------4----4----4-------|
A|---2---2-----------------2-2---|---2---2-----------------2-2---|
E|-0-------------0---------------|-0-------------0---------------|


[Verse Two]
[Gtr.1 : Steel String Acoustic w/ Slight Chorus]
E|-----0---------0---0--0--0--0-|-----0---------0---0--0--0--0-|
B|-----3---------3---3--3--3--3-|-----3---------3---3--3--3--3-| Play
G|-0---0-----0---0---0--0--0--0-|-0---0-----0---0---0--0--0--0-| Four
D|-4---------4-------4--4--4--4-|-4---------4-------4--4--4--4-| Times
A|-2---------2-------2--2--2--2-|-2---------2-------2--2--2--2-|
E|-0---------0-------0--0--0--0-|-0---------0-------0--0--0--0-|

[Verse Two] (cont.)
[Gtr.1 : Steel String Acoustic w/ Slight Chorus]
E|-----0---0-----0---------0---0-----0---|
B|-----0---0-----0---------0---0-----0---|
G|-2---2---2-----2-----2---2---2-----2---|
D|-3-------3-----3-----3-------3-----3---|
A|-3-------3-----3-----3-------3-----3---|
E|-1-------1-----1-----1-------1-----1---|

[Verse Two] (cont.)
[Gtr.1 : Steel String Acoustic w/ Slight Chorus]
E|-----0---------0---0--0--0--0-|-----0---------0---0--0--0--0-|
B|-----3---------3---3--3--3--3-|-----3---------3---3--3--3--3-|
G|-0---0-----0---0---0--0--0--0-|-0---0-----0---0---0--0--0--0-|
D|-4---------4-------4--4--4--4-|-4---------4-------4--4--4--4-|
A|-2---------2-------2--2--2--2-|-2---------2-------2--2--2--2-|
E|-0---------0-------0--0--0--0-|-0---------0-------0--0--0--0-|

[Verse Two] (cont.)
[Gtr.1 : Steel String Acoustic w/ Slight Chorus]
E|-----0---0-----0---------0---0-----0---|
B|-----0---0-----0---------0---0-----0---|
G|-2---2---2-----2-----2---2---2-----2---|
D|-3-------3-----3-----3-------3-----3---|
A|-3-------3-----3-----3-------3-----3---|
E|-1-------1-----1-----1-------1-----1---|

[Verse Two] (cont.)
[Gtr.1 : Steel String Acoustic w/ Slight Chorus]
E|-----0---------0---0--0--0--0-|-----0---------0---0--0--0--0-|
B|-----3---------3---3--3--3--3-|-----3---------3---3--3--3--3-|
G|-0---0-----0---0---0--0--0--0-|-0---0-----0---0---0--0--0--0-|
D|-4---------4-------4--4--4--4-|-4---------4-------4--4--4--4-|
A|-2---------2-------2--2--2--2-|-2---------2-------2--2--2--2-|
E|-0---------0-------0--0--0--0-|-0---------0-------0--0--0--0-|


[Second Chorus]
[Gtr.1 : Steel String Acoustic w/ Slight Chorus]
E|-0---0-0---0-------|-0---0-0---0-------|
B|-0---0-0---0-------|-0---0-0---0-------|
G|-8---8-8---8-------|-6---6-6---6-------|
D|-9---9-9---9-------|-7---7-7---7-------|
A|-9---9-9---9-------|-7---7-7---7-------|
E|-7---7-7---7-------|-5---5-5---5-------|

[Second Chorus] (cont.)
[Gtr.1 : Steel String Acoustic w/ Slight Chorus]
E|----------2--2-2--0--0--0-0-0-|----------2--2-2--0--0--0-0-0-|
B|----0--0--0--0-0--0--0--0-0-0-|----0--0--0--0-0--0--0--0-0-0-|
G|-1--1--1--1--1-1--1--1--1-1-1-|-1--1--1--1--1-1--1--1--1-1-1-|
D|-2--2--2--2--2-2--2--2--2-2-2-|-2--2--2--2--2-2--2--2--2-2-2-|
A|-2--2--2--2--2-2--2--2--2-2-2-|-2--2--2--2--2-2--2--2--2-2-2-|
E|-0-h2-------------------------|-0-h2-------------------------|
* Gtr.1: Use Thumb * Gtr.1: Use Thumb

[Second Chorus] (cont.)
[Gtr.1 : Steel String Acoustic w/ Slight Chorus]
E|-0---0-0---0-------|-0---0-0---0-------|
B|-0---0-0---0-------|-0---0-0---0-------|
G|-8---8-8---8-------|-6---6-6---6-------|
D|-9---9-9---9-------|-7---7-7---7-------|
A|-9---9-9---9-------|-7---7-7---7-------|
E|-7---7-7---7-------|-5---5-5---5-------|

[Second Chorus] (cont.)
[Gtr.1 : Steel String Acoustic w/ Slight Chorus]
E|----------2--2-2--0--0--0-0-0-|----------2--2-2--0--0--0-0-0-|
B|----0--0--0--0-0--0--0--0-0-0-|----0--0--0--0-0--0--0--0-0-0-|
G|-1--1--1--1--1-1--1--1--1-1-1-|-1--1--1--1--1-1--1--1--1-1-1-|
D|-2--2--2--2--2-2--2--2--2-2-2-|-2--2--2--2--2-2--2--2--2-2-2-|
A|-2--2--2--2--2-2--2--2--2-2-2-|-2--2--2--2--2-2--2--2--2-2-2-|
E|-0-h2-------------------------|-0-h2-------------------------|
* Gtr.1: Use Thumb * Gtr.1: Use Thumb

[Second Chorus] (cont.)
[Gtr.1 : Steel String Acoustic w/ Slight Chorus]
E|-0---0-0---0-------|-0---0-0---0-------|
B|-0---0-0---0-------|-0---0-0---0-------| Play
G|-8---8-8---8-------|-6---6-6---6-------| Twice
D|-9---9-9---9-------|-7---7-7---7-------|
A|-9---9-9---9-------|-7---7-7---7-------|
E|-7---7-7---7-------|-5---5-5---5-------|

[Second Chorus] (cont.)
[Gtr.1 : Steel String Acoustic w/ Slight Chorus]
E|------------------------------|------------------------------|
B|------------------------------|------------------------------|
G|-1--1-1-1--1--2-2--2--4-4-4-4-|-1--1-1-1--1--2-2--2--4-4-4-4-|
D|-2--2-2-2--2--3-3--3--5-5-5-5-|-2--2-2-2--2--3-3--3--5-5-5-5-|
A|-2--2-2-2--2--3-3--3--5-5-5-5-|-2--2-2-2--2--3-3--3--5-5-5-5-|
E|-0--0-0-0--0--1-1--1--3-3-3-3-|-0--0-0-0--0--1-1--1--3-3-3-3-|


[Second Chorus Outro]
[Gtr.1 : Steel String Acoustic w/ Slight Chorus]
E|---------0-----0--0---0--0----|---------0-----0--0---0--0----|
B|---------0-----0--0---0--0----|---------0-----0--0---0--0----|
G|-----3---3-----3--3---3--3----|-----2---2-----2--2---2--2----|
D|-4---4---4-----4--4---4--4----|-3---3---3-----3--3---3--3----|
A|-4---4---------4--4---4--4----|-3---3---------3--3---3--3----|
E|-2-------------2--2---2--2----|-1-------------1--1---1--1----|


[Solo]
[Gtr.1 : Steel String Acoustic w/ Slight Chorus]
E|-0-0--X-X--0--X-X-X--0-0--X-X--0--X-X-X--0-0--X-X--0--X-X-X--0-0--X-|
B|-3-3--X-X--3--X-X-X--3-3--X-X--3--X-X-X--3-3--X-X--3--X-X-X--3-3--X-|
G|-0-0--X-X--0--X-X-X--0-0--X-X--0--X-X-X--0-0--X-X--0--X-X-X--0-0--X-|
D|-4-4--X-X--4--X-X-X--4-4--X-X--4--X-X-X--4-4--X-X--4--X-X-X--4-4--X-|
A|-2-2--X-X--2--X-X-X--2-2--X-X--2--X-X-X--2-2--X-X--2--X-X-X--2-2--X-|
E|-0-0--X-X--0--X-X-X--0-0--X-X--0--X-X-X--0-0--X-X--0--X-X-X--0-0--X-|
| [Gtr.2 : Electric w/ Lead Tone] |
E|--------------------------------------------------------------------|
B|-15-----------------------------------------------------------------|
G|----14\-------7-9b10r9-9p7-9p7--------------------------------------|
D|----------7/9---------------------------5--4--4h5-5-5-5p4-4-4\2-2---|
A|---------------------------------7~\--------------------------------|
E|------------------------------10------------------------------------|

[Solo] (cont.)
[Gtr.1 : Steel String Acoustic w/ Slight Chorus]
E|-X--0--X-X-X--0----0-X-X-0--0----0-X-X-0------0-0--X-X--0--X-X-X----|
B|-X--3--X-X-X--0----0-X-X-0--0----0-X-X-0------3-3--X-X--3--X-X-X----|
G|-X--0--X-X-X--2----2-X-X-2--2----2-X-X-2------0-0--X-X--0--X-X-X----|
D|-X--4--X-X-X--3----3-X-X-3--3----3-X-X-3------4-4--X-X--4--X-X-X----|
A|-X--2--X-X-X--3----3-X-X-3--3----3-X-X-3------2-2--X-X--2--X-X-X----|
E|-X--0--X-X-X--1----1-X-X-1--1----1-X-X-1------0-0--X-X--0--X-X-X----|
| [Gtr.2 : Electric w/ Lead Tone] |
E|--------------------------------------------------------------------|
B|--------------10-12---------13----15--------------------------------|
G|-----------10----10---12/14----14-14--14b16--r14---14b16-14b16------|
D|-2p0-------------10-------------------------------------------------|
A|-----0h2~-----------------------------------------------------------|
E|--------------------------------------------------------------------|

[Solo] (cont.)
[Gtr.1 : Steel String Acoustic w/ Slight Chorus]
E|-0-0--X-X--0--X-X-X--0--0--X-X--0-0--X-X-X--0--X---0----0-X-X-0-----|
B|-3-3--X-X--3--X-X-X--3--3--X-X--3-3--X-X-X--3--X---0----0-X-X-0-----|
G|-0-0--X-X--0--X-X-X--0--0--X-X--0-0--X-X-X--0--X---2----2-X-X-2-----|
D|-4-4--X-X--4--X-X-X--4--4--X-X--4-4--X-X-X--4--X---3----3-X-X-3-----|
A|-2-2--X-X--2--X-X-X--2--2--X-X--2-2--X-X-X--2--X---3----3-X-X-3-----|
E|-0-0--X-X--0--X-X-X--0--0--X-X--0-0--X-X-X--0--X---1----1-X-X-1-----|
| [Gtr.2 : Electric w/ Lead Tone] |
E|--------------------------------------------------------------------|
B|----------------------------------------------------------14-17~----|
G|14b16r14-----12~--------12---------12-14b16-14b16r14-/16------------|
D|----------------------12--14-12-14----------------------14----------|
A|--------12h14----12h14----------------------------------------------|
E|--------------------------------------------------------------------|

[Solo] (cont.)
[Gtr.1 : Steel String Acoustic w/ Slight Chorus]
E|-0----0-X-X-0------0-0--X-X---0--X-X-X--0-0--X-X--0-0--X-X-X--0--0--|
B|-0----0-X-X-0------3-3--X-X---3--X-X-X--3-3--X-X--3-3--X-X-X--3--3--|
G|-2----2-X-X-2------0-0--X-X---0--X-X-X--0-0--X-X--0-0--X-X-X--0--0--|
D|-3----3-X-X-3------4-4--X-X---4--X-X-X--4-4--X-X--4-4--X-X-X--4--4--|
A|-3----3-X-X-3------2-2--X-X---2--X-X-X--2-2--X-X--2-2--X-X-X--2--2--|
E|-1----1-X-X-1------0-0--X-X---0--X-X-X--0-0--X-X--0-0--X-X-X--0--0--|
| [Gtr.2 : Electric w/ Lead Tone] |
E|--------------------------------------------------------------------|
B|-----------17-18~------\--------------------------------------------|
G|-16--16-19-----------------14-14p12----12----------------------12-14|
D|---15-------------------------------14----14-12-14\----12/14\12-----|
A|--------------------------------------------------------------------|
E|--------------------------------------------------------------------|

[Solo] (cont.)
[Gtr.1 : Steel String Acoustic w/ Slight Chorus]
E|-0-0--X-X--0--X-X-X--0-0--X-X--0---|
B|-3-3--X-X--3--X-X-X--3-3--X-X--3---|
G|-0-0--X-X--0--X-X-X--0-0--X-X--0---|
D|-4-4--X-X--4--X-X-X--4-4--X-X--4---|
A|-2-2--X-X--2--X-X-X--2-2--X-X--2---|
E|-0-0--X-X--0--X-X-X--0-0--X-X--0---|
| [Gtr.2 : Electric w/ Lead Tone] |
E|-------------------------15--15-17-|
B|--------------15-17-15-17--17------|
G|-15-16---14-16---------------------|
D|-----------------------------------|
A|-----------------------------------|
E|-----------------------------------|


[Third Chorus]
[Gtr.1 : Steel String Acoustic w/ Slight Chorus]
E|-0---0-0---0-------|-0---0-0---0-------|
B|-0---0-0---0-------|-0---0-0---0-------|
G|-8---8-8---8-------|-6---6-6---6-------|
D|-9---9-9---9-------|-7---7-7---7-------|
A|-9---9-9---9-------|-7---7-7---7-------|
E|-7---7-7---7-------|-5---5-5---5-------|
| [Gtr.2 : Electric w/ Lead Tone] |
E|-19~-----------------17~------------\--|
B|---------------------------------------|
G|---------------------------------------|
D|---------------------------------------|
A|---------------------------------------|
E|---------------------------------------|

[Third Chorus] (cont.)
[Gtr.1 : Steel String Acoustic w/ Slight Chorus]
E|----------2--2-2--0--0--0-0-0-|----------2--2-2--0--0--0-0-0-|
B|----0--0--0--0-0--0--0--0-0-0-|----0--0--0--0-0--0--0--0-0-0-|
G|-1--1--1--1--1-1--1--1--1-1-1-|-1--1--1--1--1-1--1--1--1-1-1-|
D|-2--2--2--2--2-2--2--2--2-2-2-|-2--2--2--2--2-2--2--2--2-2-2-|
A|-2--2--2--2--2-2--2--2--2-2-2-|-2--2--2--2--2-2--2--2--2-2-2-|
E|-0-h2-------------------------|-0-h2-------------------------|
* Gtr.1: Use Thumb * Gtr.1: Use Thumb

[Third Chorus] (cont.)
[Gtr.1 : Steel String Acoustic w/ Slight Chorus]
E|-0---0-0---0-------|-0---0-0---0-------|
B|-0---0-0---0-------|-0---0-0---0-------|
G|-8---8-8---8-------|-6---6-6---6-------|
D|-9---9-9---9-------|-7---7-7---7-------|
A|-9---9-9---9-------|-7---7-7---7-------|
E|-7---7-7---7-------|-5---5-5---5-------|

[Third Chorus] (cont.)
[Gtr.1 : Steel String Acoustic w/ Slight Chorus]
E|----------2--2-2--0--0--0-0-0-|----------2--2-2--0--0--0-0-0-|
B|----0--0--0--0-0--0--0--0-0-0-|----0--0--0--0-0--0--0--0-0-0-|
G|-1--1--1--1--1-1--1--1--1-1-1-|-1--1--1--1--1-1--1--1--1-1-1-|
D|-2--2--2--2--2-2--2--2--2-2-2-|-2--2--2--2--2-2--2--2--2-2-2-|
A|-2--2--2--2--2-2--2--2--2-2-2-|-2--2--2--2--2-2--2--2--2-2-2-|
E|-0-h2-------------------------|-0-h2-------------------------|
* Gtr.1: Use Thumb * Gtr.1: Use Thumb

[Third Chorus] (cont.)
[Gtr.1 : Steel String Acoustic w/ Slight Chorus]
E|-0---0-0---0-------|-0---0-0---0-------|
B|-0---0-0---0-------|-0---0-0---0-------| Play
G|-8---8-8---8-------|-6---6-6---6-------| Twice
D|-9---9-9---9-------|-7---7-7---7-------|
A|-9---9-9---9-------|-7---7-7---7-------|
E|-7---7-7---7-------|-5---5-5---5-------|


[Third Chorus Outro]
[Gtr.1 : Steel String Acoustic w/ Slight Chorus]
E|-0---0-0-0--0-0-0--0-0-0-0--0---0--0--0--0--0--0--0--0--0--0-|
B|-0---0-0-0--0-0-0--0-0-0-0--0---0--0--0--0--0--0--0--0--0--0-|
G|-8---8-8-8--8-8-8--8-8-8-8--9---9--9--9--9--9/11-11-11-11-11-|
D|-9---9-9-9--9-9-9--9-9-9-9-10--10-10-10-10-10/12-12-12-12-12-|
A|-9---9-9-9--9-9-9--9-9-9-9-10--10-10-10-10-10/12-12-12-12-12-|
E|-7---7-7-7--7-7-7--7-7-7-7--8---8--8--8--8--8/10-10-10-10-10-|


[Outro]
[Gtr.1 : Steel String Acoustic w/ Slight Chorus - Right Speaker]
E|---------------------------------|---------------------------------|
B|---------3-----------------------|---------3-----------------------|
G|-----------0-----------0------0--|-----------0-----------0------0--|
D|-----4-------4------4-----4------|-----4-------4------4-----4------|
A|---2---2----------2---------2----|---2---2----------2---------2----|
E|-0-------------0-----------------|-0-------------0-----------------|
| [Gtr.1 : Steel String Acoustic w/ Slight Chorus - Left Speaker] |
E|---------------------------------|---------------------------------|
B|---------3-----------------------|---------3-----------------------| Play
G|-----------0-----------0-------0-|-----------0-----------0-------0-| Three
D|-----4-------4-----4-----4---4---|-----4-------4-----4-----4---4---| Times
A|---2---2---------2---2-----2-----|---2---2---------2---2-----2-----|
E|-0-------------0-----------------|-0-------------0-----------------|

[Outro] (cont.)
[Gtr.1 : Steel String Acoustic w/ Slight Chorus - Right Speaker]
E|---------------------------------|---------------------------------|
B|---------3-----------------------|---------3-----------------------|
G|-----------0-----------0------0--|-----------0-----------0---------|
D|-----4-------4------4-----4------|-----4-------4------4--4--4------|
A|---2---2----------2---------2----|---2---2----------2----2---------|
E|-0-------------0-----------------|-0-------------0-----------------|
| [Gtr.1 : Steel String Acoustic w/ Slight Chorus - Left Speaker] |
E|---------------------------------|---------------------------------|
B|---------3-----------------------|---------3-----------------------|
G|---------0-------------0-------0-|---------0-0---------------------|
D|-----4--------------4------4-----|-----4-------4-------------------|
A|---2---2----------2----------2---|---2---2-------------------------|
E|-0-------------0-----------------|-0-------------0-----------------|


---

OptimusPrime

Toegevoegd door OptimusPrime op do 14 aug, 2003 3:44 pm

Auteur: ?
Componist: ?
Uitgever: ?
Taal: Engels

Reacties

CommonCrawl [Bot]

Volg Muzikum