David Bowie

David Bowie
Ziggy Stardust (Bass tab)

David Bowie - Ziggy Stardust
Version tabbed by Dibbley

Standard Tuning

Intro (var.)
G|-------------|-------------|
D|-5---------3-|-5-------7-3-|
A|---5-3-2--0--|---5---------|
E|-------------|-----8-7-----|

Verse
G|------------4-4-4p3-4-5-|-5-4-5-6-7--9-7-----|
D|-5--5------4------------|----------------9-7-|
A|---5-5-5\2--------------|--------------------|
E|------------------------|--------------------|

G|------------9--9-9-----------------------|
D|-5--5-4-5-9-----9-9p8-7-7-7-7-9-10---3h4-|
A|-----------------------7-----------------|
E|-----------------------------------------|

G|------------4-4-4p3-4-5-|-5-4-5-6-7--9-7-----|
D|-5--5------4------------|----------------9-7-|
A|---5-5-5\2--------------|--------------------|
E|------------------------|--------------------|

G|----------7h8h9--9-9---------------------------------|
D|-5--5-4-5-----------9-8-7--7-7--7-7-7-9-10---10p9h10-|
A|-----------------------------------------------------|
E|-----------------------------------------------------|

Chorus
G|---------------------------------------|
D|-7-7-7-7-7--5-5-5-5-5--3-2-3-2-3-2-3-5-|
A|---------------------------------------|
E|---------------------------------------|

Chorus Outro
G|----7--7-5-----7-7--7---------|
D|---7------7-7-----------------|
A|-5------------7-7--7-7-7--7-9-|
E|------------------------------|

Intro (var.)
G|-------------------|-------------|
D|--5--------------3-|-5-------7-3-|
A|-(10)----5-3-2--0--|---5---------|
E|-------------------|-----8-7-----|

Verse
G|------------4-4-4p3-4-5-|-5-4-5-6-7--9-7-----|
D|-5--5------4------------|----------------9-7-|
A|---5-5-5\2--------------|--------------------|
E|------------------------|--------------------|

G|----------7h8h9--9-9---------------------------------|
D|-5--5-4-5-----------9-8-7--7-7--7-7-7-9-10---10p9h10-|
A|-----------------------------------------------------|
E|-----------------------------------------------------|

Chorus
G|---------------------------------------|
D|-7-7-7-7-7--5-5-5-5-5--3-2-3-2-3-2-3-5-|
A|---------------------------------------|
E|---------------------------------------|

Chorus Outro
G|----7--7-5-----7-7--7---------|
D|---7------7-7-----------------|
A|-5------------7-7--7-7-7--7-9-|
E|------------------------------|

Intro (var.)
G|-----------------|-------------|
D|--5------------3-|-5-------7-3-|
A|-(10)--5-3-2--0--|---5---------|
E|-----------------|-----8-7-----|

Outro
G|---------|------|
D|-5-------|-5----|
A|----5--3-|------|
E|---------|---3--|

Note: The Bauhaus version uses a lot of slides and root notes. Give it a listen.

OptimusPrime

Toegevoegd door OptimusPrime op do 14 aug, 2003 4:35 pm

Auteur: David Bowie
Componist: David Bowie
Uitgever: RCA Records
Uitgegeven in: 1972
Taal: Engels
Beschikbaar op: A Reality Tour (2010), At the Beeb (2000), At the Beeb (2000), Best of Bowie (2002), Changesbowie (1990), Legacy (2016), Stage (1978), The Platinum Collection (2005), The Singles Collection (1993)

Reacties

CommonCrawl [Bot]

Volg Muzikum