David Bowie

David Bowie
Rebel Rebel (Bass tab)

Artist: David Bowie
Cd: Best of Bowie
Song: Rebel, Rebel

Bass Tablature

Intro

G|-------|9-7-6----------|
D|-------|-----9-7-6-----|
A|-5--7--|----------7-5--|
E|5--7---|---------------|

Verse and Chorus (play this in the whole song, except wehn bass
stops plays and only guitar and drums play, then when bass start
play again you shold play the intro, then keep on with this):

G|9-7-6----------|9-7-6----------|9-7-6----------|
D|-----9-7-6-----|-----9-7-6-----|-----9-7-6-----|
A|----------7-5--|----------7-5--|----------7-5--|
E|---------------|---------------|---------------|

By: Isak

Any comments? E-mail me at isak2k@hotmail.com

OptimusPrime

Toegevoegd door OptimusPrime op do 14 aug, 2003 4:35 pm

Auteur: David Bowie
Componist: David Bowie
Uitgever: Rykodisc
Uitgegeven in: 2018
Taal: Engels
Beschikbaar op: A Reality Tour (2010), Best of Bowie (2002), Changesbowie (1990), Diamond Dogs (1974), Glass Spider (2007), I'm Only Dancing (2020), Legacy (2016), Something in the Air (2020), The Platinum Collection (2005), The Singles Collection (1993)

Reacties

CommonCrawl [Bot]

Volg Muzikum